Song name
# A B C D E F G H I J K L M N O P Q R S T U V W X Y Z

Daft Punk - End Of Line tab

This song comes from the TRON: Legacy soundtrack, made by Daft Punk

Tab by Microcutted

I've made this tab all by ear without slowing anything down but it sounds like it
is all correct throughout. Have fun!

Bass line
  E.  E.  E.  E.  E  S S    E.  E.  E.  E.  E.  S    E.  E.  E.  E.  E  S S
-------------------------|------------------------|-------------------------|
-------------------------|------------------------|-------------------------|
-------------------------|------------------------|-------------------------|
-------------------------|------------------------|-------------------------|
-------------------------|------------------------|-------------------------|
--7---7---7---7---7--0-0-|--0---0---3---3---3---L-|--7---7---7---7---7--0-0-|


  E.  E.  E.  E.  E.  S    E.  E.  E.  E.  E  S S    E.  E.  E.  E.  E.  S
------------------------|-------------------------|------------------------|
------------------------|-------------------------|------------------------|
------------------------|-------------------------|------------------------|
------------------------|-------------------------|------------------------|
------------------------|-------------------------|------------------------|
--0---0---3---3---3---L-|--7---7---7---7---7--0-0-|--0---0---3---3---3---L-|


  E.  E.  E.  E.  E  S S    E.  E.  E.  E.  E.  S    E.  E.  E.  E.  E  S S
-------------------------|------------------------|-------------------------|
-------------------------|------------------------|-------------------------|
-------------------------|------------------------|-------------------------|
-------------------------|------------------------|-------------------------|
-------------------------|------------------------|-------------------------|
--7---7---7---7---7--0-0-|--0---0---3---3---3---L-|--7---7---7---7---7--0-0-|


  E.  E.  E.  E.  E.  S    E.  E.  E.  E.  E  S S    E.  E.  E.  E.  E.  S
------------------------|-------------------------|------------------------|
------------------------|-------------------------|------------------------|
------------------------|-------------------------|------------------------|
------------------------|-------------------------|------------------------|
------------------------|-------------------------|------------------------|
--0---0---3---3---3---L-|--7---7---7---7---7--0-0-|--0---0---3---3---3---L-|


  E.  E.  E.  E.  E  S S    E.  E.  E.  E.  E.  S    E.  E.  E.  E.  E  S S
-------------------------|------------------------|-------------------------|
-------------------------|------------------------|-------------------------|
-------------------------|------------------------|-------------------------|
-------------------------|------------------------|-------------------------|
-------------------------|------------------------|-------------------------|
--7---7---7---7---7--0-0-|--0---0---3---3---3---L-|--7---7---7---7---7--0-0-|


  E.  E.  E.  E.  E.  S
------------------------||
------------------------||
------------------------||
------------------------||
------------------------||
--0---0---3---3---3---L-||

Repeat this throughout the whole song!



First melody line
  E  E  E  Q.     Q       E   Q.     Q.     E     E  E  E  Q.     Q
-----------------------|-----------------------|-----------------------|
-----------------------|-----------------------|-----------------------|
-----------------------|-----------------------|-----------------------|
--------7--------------|-----------------------|--------7--------------|
--5--7------------5----|--L---3----------------|--5--7------------5----|
-----------7-----------|-------------3------L--|-----------7-----------|


  E   Q.     Q.     E     E  E  E  Q.     Q       E   Q.     Q.     E
-----------------------|-----------------------|-----------------------|
-----------------------|-----------------------|-----------------------|
-----------------------|-----------------------|-----------------------|
-----------------------|--------7--------------|-----------------------|
--L---3----------------|--5--7------------5----|--L---3----------------|
-------------3------L--|-----------7-----------|-------------3------L--|


  E  E  E  Q.     Q       E   Q.     Q.     E
-----------------------|-----------------------||
-----------------------|-----------------------||
-----------------------|-----------------------||
--------7--------------|-----------------------||
--5--7------------5----|--L---3----------------||
-----------7-----------|-------------3------L--||


When the first lead melody has been played 2 times the same melody is played over this 
one octave above this.

  E  E   E  Q.     Q       E   Q.     Q.     E
------------------------|-----------------------|
--------10--------------|-----------------------|
--7--9-------------7----|--L--------------------|
------------7-----------|-----10----------------|
------------------------|-------------8------L--|
------------------------|-----------------------|


  E  E   E  Q.     Q       E   Q.     Q.     E
------------------------|-----------------------||
--------10--------------|-----------------------||
--7--9-------------7----|--L--------------------||
------------7-----------|-----10----------------||
------------------------|-------------8------L--||
------------------------|-----------------------||

It is very easy to predict when the different parts are gonna be played so you can 
probably play it after 3 times hearing it.


Duration Legend
---------------
W - whole
H - half
Q - quarter
E - 8th
S - 16th
T - 32nd
X - 64th
. - note dotted
|-n-|  - n-tuplets


Tablature Legend
----------------
L - tied note
x - dead note
g - grace note
(n) - ghost note
> - accentuded note
NH - natural harmonic
AH - artificial harmonic
TH - tapped harmonic
SH - semi harmonic
PH - pitch harmonic
h - hammer on
p - pull off
b - bend
br - bendRelease
pb - preBend
pbr - preBendRelease
brb - bendReleaseBend
\n/ - tremolo bar dip
\n - tremolo bar dive
-/n - tremolo bar Release up
/n\ - tremolo bar inverted dip
/n - tremolo bar return
-\n - tremolo bar Release down
S - shift slide
s - legato slide
/ -  slide into from below or out of upwards
\ -  slide into from above or out of downwards
~ - vibrato
W - wide vibrato
tr - trill
TP - tremolo picking
T - tapping
S - slap
P - pop
< - fade in
^ - brush up
v - brush down
Tap to rate this tab
 
# A B C D E F G H I J K L M N O P Q R S T U V W X Y Z