Song name
# A B C D E F G H I J K L M N O P Q R S T U V W X Y Z

Daft Punk - Digital Love tab

Quite an easy riff.

E-------------------------------------|
B-------------------------------------|
G-------------------------------------|
D-----------4--2----------------------|
A-----5-5-4---------------------------|
E-------------------------------------|

The other similar part is

E-----------------------------------|
B-----------------------------------|
G-----------------------------------|
D------------------4-4--------------|
A-----5-5----4-4---------0--0--0----|
E-----------------------------------|
Tap to rate this tab
 
# A B C D E F G H I J K L M N O P Q R S T U V W X Y Z