Song name
# A B C D E F G H I J K L M N O P Q R S T U V W X Y Z

Daft Punk - Aerodynamic tab

You can play this in whatever style your comfortable with ... ^_^ ... the tab 
looks like it's not even in some places, but I can assure you that it's all played 
at the same tempo. =D

e|-------------------------------------------------------------------------|
B|-------------------------------------------------------------------------|
G|-6-------6-------6-------6-------6---------6---------6---------6---------|
D|-----8-------8-------8-------8--------8---------8---------8---------8----|
A|---8---8---8---8---8---8---8---8---10---10---10---10---10---10---10---10-|
E|-------------------------------------------------------------------------|

e|--------------------------------------------------------------|
B|--------------------------------------------------------------|
G|-11------11------11------11------8------8------8------8-------|
D|-----13------13------13------13-----10-----10-----10-----10---|
A|---13--13--13--13--13--13--13--13-11--11-11--11-11--11-11--11-|
E|--------------------------------------------------------------|

e|------------------------------------------------------------------|
B|------------------------------------------------------------------|
G|-10------10------10------10------12------12------12------12-------|
D|-----11------11------11------11------11------11------11------11---|
A|---13--13--13--13--13--13--13--13--13--13--13--13--13--13--13--13-|
E|------------------------------------------------------------------|

e|--------------------------------------------------------------|
B|--------------------------------------------------------------|
G|-11------11------11------11------8------8------8------8-------|
D|-----13------13------13------13-----10-----10-----10-----10---|
A|---13--13--13--13--13--13--13--13-11--11-11--11-11--11-11--11-|
E|--------------------------------------------------------------|

e|------------------------------------------------------------------|
B|------------------------------------------------------------------|
G|-10------10------10------10------12------12------12------12-------|
D|-----11------11------11------11------11------11------11------11---|
A|---13--13--13--13--13--13--13--13--13--13--13--13--13--13--13--13-|
E|------------------------------------------------------------------|

e|--------------------------------------------------------------|
B|--------------------------------------------------------------|
G|-11------11------11------11------8------8------8------8-------|
D|-----13------13------13------13-----10-----10-----10-----10---|
A|---13--13--13--13--13--13--13--13-11--11-11--11-11--11-11--11-|
E|--------------------------------------------------------------|

e|------------------------------------------------------------------|
B|------------------------------------------------------------------|
G|-10------10------10------10------12------12------12------12-------|
D|-----11------11------11------11------11------11------11------11---|
A|---13--13--13--13--13--13--13--13--13--13--13--13--13--13--13--13-|
E|------------------------------------------------------------------|

e|--------------------------------------------------------------|
B|--------------------------------------------------------------|
G|-11------11------11------11------8------8------8------8-------|
D|-----13------13------13------13-----10-----10-----10-----10---|
A|---13--13--13--13--13--13--13--13-11--11-11--11-11--11-11--11-|
E|--------------------------------------------------------------|

e|------------------------------------------------------------------|
B|------------------------------------------------------------------|
G|-10------10------10------10------12------12------12------12-------|
D|-----11------11------11------11------11------11------11------11---|
A|---13--13--13--13--13--13--13--13--13--13--13--13--13--13--13--13-|
E|------------------------------------------------------------------|

e|--------------------------------------------------------------|
B|--------------------------------------------------------------|
G|-11------11------11------11------8------8------8------8-------|
D|-----13------13------13------13-----10-----10-----10-----10---|
A|---13--13--13--13--13--13--13--13-11--11-11--11-11--11-11--11-|
E|--------------------------------------------------------------|

e|------------------------------------------------------------------|
B|------------------------------------------------------------------|
G|-10------10------10------10------12------12------12------12-------|
D|-----11------11------11------11------11------11------11------11---|
A|---13--13--13--13--13--13--13--13--13--13--13--13--13--13--13--13-|
E|------------------------------------------------------------------|

e|--------------------------------------------------------------|
B|--------------------------------------------------------------|
G|-11------11------11------11------8------8------8------8-------|
D|-----13------13------13------13-----10-----10-----10-----10---|
A|---13--13--13--13--13--13--13--13-11--11-11--11-11--11-11--11-|
E|--------------------------------------------------------------|

e|-------------------------------------------------------------------------|
B|-------------------------------------------------------------------------|
G|-6-------6-------6-------6-------6---------6---------6---------6---------|
D|-----8-------8-------8-------8--------8---------8---------8---------8----|
A|---8---8---8---8---8---8---8---8---10---10---10---10---10---10---10---10-|
E|-------------------------------------------------------------------------|

e|--------------------------------------------------------------|
B|--------------------------------------------------------------|
G|-11------11------11------11------8------8------8------8-------|
D|-----13------13------13------13-----10-----10-----10-----10---|
A|---13--13--13--13--13--13--13--13-11--11-11--11-11--11-11--11-|
E|--------------------------------------------------------------|

e|-------------------------------------------------------------------------|
B|-------------------------------------------------------------------------|
G|-6-------6-------6-------6-------6---------6---------6---------6---------|
D|-----8-------8-------8-------8--------8---------8---------8---------8----|
A|---8---8---8---8---8---8---8---8---10---10---10---10---10---10---10---10-|
E|-------------------------------------------------------------------------|

e|--------------------------------------------------------------|
B|--------------------------------------------------------------|
G|-11------11------11------11------8------8------8------8-------|
D|-----13------13------13------13-----10-----10-----10-----10---|
A|---13--13--13--13--13--13--13--13-11--11-11--11-11--11-11--11-|
E|--------------------------------------------------------------|

e|------------------------------------------------------------------|
B|------------------------------------------------------------------|
G|-10------10------10------10------12------12------12------12-------|
D|-----11------11------11------11------11------11------11------11---|
A|---13--13--13--13--13--13--13--13--13--13--13--13--13--13--13--13-|
E|------------------------------------------------------------------|

e|--------------------------------------------------------------|
B|--------------------------------------------------------------|
G|-11------11------11------11------8------8------8------8-------|
D|-----13------13------13------13-----10-----10-----10-----10---|
A|---13--13--13--13--13--13--13--13-11--11-11--11-11--11-11--11-|
E|--------------------------------------------------------------|

e|------------------------------------------------------------------|
B|------------------------------------------------------------------|
G|-10------10------10------10------12------12------12------12-------|
D|-----11------11------11------11------11------11------11------11---|
A|---13--13--13--13--13--13--13--13--13--13--13--13--13--13--13--13-|
E|------------------------------------------------------------------|

e|--------------------------------------------------------------|
B|--------------------------------------------------------------|
G|-11------11------11------11------8------8------8------8-------|
D|-----13------13------13------13-----10-----10-----10-----10---|
A|---13--13--13--13--13--13--13--13-11--11-11--11-11--11-11--11-|
E|--------------------------------------------------------------|

.... DONG !!! (the bell goes right after all this) ^_^
Tap to rate this tab
 
# A B C D E F G H I J K L M N O P Q R S T U V W X Y Z