Song name
# A B C D E F G H I J K L M N O P Q R S T U V W X Y Z

Daft Punk - Digital Love chords

The best Daft Punk song out there. Enjoy :)

Intro chords:

   e:----------2-----|    
   B:----------3-----|
   G:--7---6---2---4-|
   D:--7---6-------2-|
   A:--5---4-------2-|
   E:----------------| 

or 

   e:----------2-----|
   B:----------3-----|
   G:--7---6---2---7-|
   D:--7---6-------9-|
   A:--5---4-------9-|
   E:----------------|


Bridge chords:

   e:--2---4---9------|
   B:--3---5---10-----|
   G:--2---6---11---9-|
   D:------6---11---9-|
   A:------4---9----7-|
   E:-----------------|


Tabbed by Brett A
Tap to rate this tab
# A B C D E F G H I J K L M N O P Q R S T U V W X Y Z