Song name
# A B C D E F G H I J K L M N O P Q R S T U V W X Y Z

Daft Punk - The Brainwasher tab

-----------------------------------------------------------------------------
                             THE BRAINWASHER - Daft Punk
-----------------------------------------------------------------------------
Tabbed by: Me
E-mail: lesslandsaddicted@gmail.com

Tuning: Normal

Riff A:
e|-----------|
B|-----------|
G|-----------| x1
D|-----------|
A|-----------|
E|-4-4-4-6-7-|

Riff B:
e|-------------|
B|-------------|
G|-------------| x13
D|-------------|
A|-------------|
E|-4-4-4-4-6-7-|

Riff C:
e|------------------------------------|
B|------------------------------------|
G|------------------------------------| x1
D|------------------------------------|
A|----6-6-6-6-4-4-4-4-----------------|
E|-4------------------7-7-7-7-6-6-6-6-|

A+B+C x5, then:

Riff D:
e|------------------------------------|
B|------------------------------------|
G|------------------------------------| x2
D|------------------------------------|
A|-6-6-6-6-4-4-4-4--------------------|
E|-----------------7-7-7-7-6-6-6-6-(4)|
Play (4) only at the very end of the song.

Repeat everything. Then:

A+B+C+D.

Tap to rate this tab
# A B C D E F G H I J K L M N O P Q R S T U V W X Y Z