Song name
# A B C D E F G H I J K L M N O P Q R S T U V W X Y Z

Daft Punk - Funk Ad tab

-----------------------------------------------------------------------------
                             FUNK AD - Daft Punk
-----------------------------------------------------------------------------
Tabbed by: Me
E-mail: lesslandsaddicted@gmail.com

Tuning: Normal

It's basically "Da Funk" played in reverse.

e|--------------|---------------|----------------|----------------|
B|--------------|---------------|----------------|----------------|
G|--------------|---------------|----------------|-----3----------|
D|--------------|---------------|-----3----------|-------5-3-5--5-|
A|--------------|----5----------|-------5-3-5--5-|-5-5------------|
E|-6---5---3--3-|3-3---6-5-6--6-|-6-6------------|----------------|
Tap to rate this tab
# A B C D E F G H I J K L M N O P Q R S T U V W X Y Z