Song name
# A B C D E F G H I J K L M N O P Q R S T U V W X Y Z

Daft Punk - Da Funk tab

-----------------------------------------------------------------------------
                             Da Funk - Daft Punk
-----------------------------------------------------------------------------
Tabbed by: Me
E-mail: lesslandsaddicted@gmail.com

Tuning: Normal

Main Riff:

e|----------|---------|----------|---------|
B|----------|---------|----------|---------|
G|--------3-|---------|----------|---------|
D|-5--3-5---|-------3-|----------|---------|
A|----------|5--3-5---|--------5-|---------|
E|----------|---------|-6--5-6---|-3--5--6-|

Background Chord:

e|-7-7-|-x-7-|-7-|-7-|
B|-7-7-|-x-7-|-7-|-7-|
G|-7-7-|-x-7-|-7-|-7-|
D|-----|-----|---|---|
A|-----|-----|---|---|
E|-----|-----|---|---|

Repeat, then:

e|---------------|-----------|
B|---------------|-----------|
G|---3-----------|-----------|
D|-5---5p3-------|----3-5----|
A|---------8p5-8-|--8--------|
E|---------------|--------3--|

************************************

| /   slide up
| \   slide down
| h   hammer-on
| p   pull-off
| x   Mute note

************************************
Tap to rate this tab
# A B C D E F G H I J K L M N O P Q R S T U V W X Y Z