Song name
# A B C D E F G H I J K L M N O P Q R S T U V W X Y Z

Daft Punk - Get Lucky tab

Those are the chords:
----------------------|
----7---7---10---9----|
----7---7---11---9----|
----9---7---11---9----|
----------------------|
----------------------|

This is the rhythm:
--------------------------------------------------------------------------|
--7--7--7--7-7-7---7--7--7--7-7-7---10--10--10--10-10-10---9--9--9--9-9-9-|
--7--7--7--7-7-7---7--7--7--7-7-7---11--11--11--11-11-11---9--9--9--9-9-9-|
--9--9--9--9-9-9---7--7--7--7-7-7---11--11--11--11-11-11---9--9--9--9-9-9-|
--------------------------------------------------------------------------|
--------------------------------------------------------------------------|
Tap to rate this tab
# A B C D E F G H I J K L M N O P Q R S T U V W X Y Z