Song name
# A B C D E F G H I J K L M N O P Q R S T U V W X Y Z

Daft Punk - Within tab

---------------------------------------------------------------------------
                Within Ė Daft Punk
---------------------------------------------------------------------------
Tabbed by: maguri
Tuning: Standard

Daft Punk
Within (2013)
(Bangalter/Jason "Chilly Gonzales" Beck/de Homem-Christo)

From: "Random Access Memories"

---------------------------------------------------------------------------
Capo 1st fret

INTRO/VERSE
  Am               F(add9)          D(sus2)          G
  1 + 2 + 3 + 4 +  1 + 2 + 3 + 4 +  1 + 2 + 3 + 4 +  1 + 2 + 3 + 4 +
e|----------------|----------------|------0---------|----------------|
B|------1---------|----------------|----3-----3-----|------0---------|
G|----2-----2-----|------0---------|--2-------------|----0-----0-----|
D|--2-------------|----3-----3-----|0-------0---0---|--0-------------|
A|0-------0---0---|--3-------------|----------------|----------------|
E|----------------|1-------1---1---|----------------|3-------3---3---|


CHORUS
  Am               F(add9)          Dm               G
  1 + 2 + 3 + 4 +  1 + 2 + 3 + 4 +  1 + 2 + 3 + 4 +  1 + 2 + 3 + 4 +
e|----------------|----------------|------1---------|----------------|
B|------1---------|----------------|----3-----3-----|------0---------|
G|----2-----2-----|------0---------|--2-------------|----0-----0---2-|
D|--2-------------|----3-----3-----|0-------0---0---|--0-------------|
A|0-------0---0---|--3-------------|----------------|----------------|
E|----------------|1-------1---1---|----------------|3-------3---x---|


---------------------------------------------------------------------------
CHORDS

          E-A-D-G-B-e
F(add9)   1-3-3-0ó1-x
Dsus2     x-x-0-2-3-0
Am7/9     x-0-5-5-5-7

---------------------------------------------------------------------------
Capo 1st fret

INTRO
| Am | F(add9) | D(sus2) | G | 

Am                 F(add9)                  D(sus2)     G
 There are so many things that I donít understand
Am                      F(add9)            D(sus2)     G
 Thereís a world within me that I cannot explain
Am               F(add9)                       D(sus2)     G
 Many rooms to explore, but the doors look the same
Am                 F(add9)          D(sus2)     G
 I am lost I canít even remember my name

Am                        F(add9)
 Iíve been, for sometime, looking for someone
Dm
Fighting to know them
G
Please tell me who I am
Am                        F(add9)
 Iíve been, for sometime, looking for someone
Dm
Fighting to know them
G
Please tell me who I am

| Am | F(add9) | Dm | G | 
| Am | F(add9) | Dm | G | 

Am                 F(add9)                  D(sus2)     G
 There are so many things that I donít understand
Am                      F(add9)            D(sus2)     G
 Thereís a world within me that I cannot explain
Am               F(add9)                       D(sus2)     G
 Many rooms to explore, but the doors look the same
Am                 F(add9)          D(sus2)     G
 I am lost I canít even remember my name     (And I wonder why)

Am                        F(add9)
 Iíve been, for sometime, looking for someone
Dm
Fighting to know them
G
Please tell me who I am
Am                        F(add9)
 Iíve been, for sometime, looking for someone
Dm
Fighting to know them
G
Please tell me who I am

Am                        F(add9)
 Iíve been, for sometime, looking for someone
Dm
Fighting to know them
G
Please tell me who I am
Am                        F(add9)
 Iíve been, for sometime, looking for someone
Dm
Fighting to know them
G
Please tell me who I am

| Am | F(add9) | D(sus2) | G | Am7/9
Tap to rate this tab
 
# A B C D E F G H I J K L M N O P Q R S T U V W X Y Z