Song name
# A B C D E F G H I J K L M N O P Q R S T U V W X Y Z

Daft Punk - Get Lucky tab

So my guitar gave me this tab, it's a really easy version and slightly higher up the 
neck to make it easier so yeah.The first bit could be played throughout the song by a 
different guitar ie the first line.

    Bm                D                F#m              E
E|-------------------|----------------|--2-2-2-2--2-2-0|------------------|
B|-------------------|-------------3-2|----------------|--5-5-5-5--5-5-3-0|
G|--4-4-4-4--4-4-2---|--2-2-2-2--2----|----------------|------------------|
D|-----------------4-|----------------|----------------|------------------|
A|-------------------|----------------|----------------|------------------|
E|-------------------|----------------|----------------|------------------|

  Bm       D      F#m    E             Bm     D              F#m
E|--------|------|------|-------------|------|--------------|-------|
B|--------|------|------|-------------|------|--------------|-------|
G|--------|------|------|------4-2-1-2|-1----|------4--2-1-2|--1----|
D|--------|------|------|--4-4--------|---4--|--4-4---------|----4--|
A|--------|------|------|-------------|------|--------------|-------|
E|--------|------|------|-------------|------|--------------|-------|

  E            Bm      D            F#m     E      Bm         D
E|------------|-------|------------|-------|------|-------0-2|-----2-4-5-|
B|----0-------|-------|----0-------|-------|------|--3--3----|-----------|
G|------2-1---|--1-2--|------2-1-2-|--1-2--|------|----------|-----------|
D|--4-------4-|-------|--4---------|-------|------|----------|-----------|
A|------------|-------|------------|-------|------|----------|-----------|
E|------------|-------|------------|-------|------|----------|-----------|

  F#m         E           Bm           D            F#m          E
E|-----5-7-4-|--------2--|--------0-2-|------2-4-5-|------5-9-7-|--------|
B|-----------|-----------|--3---3-----|------------|------------|--------|
G|-----------|-----------|------------|------------|------------|--------|
D|-----------|-----------|------------|------------|------------|--------|
A|-----------|-----------|------------|------------|------------|--------|
E|-----------|-----------|------------|------------|------------|--------|

  Bm                D                 F#m               E
E|---------------0-|---------------0-|---------------0-|-------------------|
B|--3-3-3--3-3-3---|--3-3-3--3-3-3---|--2-2-2--2-2-2---|--0-0-0--0-0-2-0---|
G|-----------------|-----------------|-----------------|-----------------2-|
D|-----------------|-----------------|-----------------|-------------------|
A|-----------------|-----------------|-----------------|-------------------|
E|-----------------|-----------------|-----------------|-------------------|

  Bm                  D                   F#m
E|-------------------|-------------------|-------------------|
B|--0-0-0--0-0-2-0---|--0-0-0--0-0-2-0---|--0-0-0--0-0-2-0---|
G|-----------------2-|-----------------2-|-----------------2-|
D|-------------------|-------------------|-------------------|
A|-------------------|-------------------|-------------------|
E|-------------------|-------------------|-------------------|

  E
E|-------------------|
B|--0-0-0--0-0-2-0---|
G|-----------------2-|
D|-------------------|
A|-------------------|
E|-------------------|

I know probably rubbish the but hey I'm a newbie and just put on computer what my 
teacher gave me on paper x
Tap to rate this tab
# A B C D E F G H I J K L M N O P Q R S T U V W X Y Z