Song name
# A B C D E F G H I J K L M N O P Q R S T U V W X Y Z

Daft Punk - Lose Yourself To Dance chords

Highlighted       Show chord diagrams
-------------------------------------------------------------------------------
                             LOSE YOURSELF TO DANCE - Daft Punk
-------------------------------------------------------------------------------

This song is built around two alternating high notes. Every chord in the song has
either G# or E# in the soprano.  Each new stanza represents two bars of music.

Tabbed by: J.S. Bach
E-mail: robert.a.greer@gmail.com

Tuning: Standard

A#m7 (in two voicings):

e|--16----13-----------------------------------------------------------------------|
B|--14----14-----------------------------------------------------------------------|
G|--13----13-----------------------------------------------------------------------|
D|--15----15-----------------------------------------------------------------------|
A|--13----13-----------------------------------------------------------------------|
E|---X-----X-----------------------------------------------------------------------|

G#7, then G#13 (tricky stuff here with the left pinky):

e|--16----13-------------------------------------------------------------------|
B|--13----13-------------------------------------------------------------------|
G|--11----11-------------------------------------------------------------------|
D|--13----13-------------------------------------------------------------------|
A|--11----11-------------------------------------------------------------------|
E|---X-----X-------------------------------------------------------------------|

D#m7 (in two voicings):

e|--16----13---------------------------------------------------------------------|
B|--11----11---------------------------------------------------------------------|
G|--11----11---------------------------------------------------------------------|
D|--11----11---------------------------------------------------------------------|
A|--13----13---------------------------------------------------------------------|
E|--11----11---------------------------------------------------------------------|

F#9, then F#M7:

e|--16----X------------------------------------------------------------------------|
B|--14----18-----------------------------------------------------------------------|
G|--15----15-----------------------------------------------------------------------|
D|--14----14-----------------------------------------------------------------------|
A|--16----16-----------------------------------------------------------------------|
E|--14----14-----------------------------------------------------------------------|

Repeat until the end!  Not so bad, right?
Tap to rate this tab
# A B C D E F G H I J K L M N O P Q R S T U V W X Y Z