Song name
# A B C D E F G H I J K L M N O P Q R S T U V W X Y Z

Daft Punk - Beyond tab

Daft Punk - Beyond
------------------


Intro (not sure about this part): 
(Played on the synthesizer)

B    C#    D     E            x3

Am    Am7                     x1

B    C#    D     E            x3

Am   Am7   G#m                x1



Then:

Your right hand plays a 16th note rhythm, up and down. 
It sounds better if you mute the strings a little.


|----------------------------------------------------------|
|----------------------------------------------------------|
|----------------------------------------------------------|
|----------x-x-9-x-x-8-x-x-6-x-x-6-x-----6-----------------|    x4
|------------------------------------6h9-------------------|
|----------------------------------------------------------|




|----------------------------------------------------------|
|----------------------------------------------------------|
|----------------------------------------------------------|
|----------x-x-11-x-x-9-x-x-6-x-x-6-x-----6----------------|    x2
|-------------------------------------6h9------------------|
|----------------------------------------------------------|




|----------------------------------------------------------|
|----------------------------------------------------------|
|----------------------------------------------------------|
|----------x-x-9-x-x-8-x-x-6-x-x-6-x-----6-----------------|    x1
|------------------------------------6h9-------------------|
|----------------------------------------------------------|





|----------------------------------------------------------|
|----------------------------------------------------------|
|----------------------------------------------------------|
|-----------------------------------------9----------------|   x1
|-----------9-9-x-x-9-9-x-x-9-9-x-x-9h11---9---------------|
|----------------------------------------------------------|



Tabber: lifeinacake
Tap to rate this tab
# A B C D E F G H I J K L M N O P Q R S T U V W X Y Z