Song name
# A B C D E F G H I J K L M N O P Q R S T U V W X Y Z

Daft Punk - Television Rules The Nation tab

Tabbed by:   JAY R-BO
Email:evo2047@yahoo.com

Tuning:STANDARD E

 -FUN TO ROCK OUT TO, YOU CAN PLAY DIFF. WAYS BUT THIS IS HOW I GET MORE CHUNK:

e|---------------------------------------------------------------------------|
B|---------------------------------------------------------------------------|
G|---------------------5---4---2---------------------------------------------|
D|--2-------4--5-------5---4---2---------------------------------------------|
A|--2-------4--5-------3---2---0---------------------------------------------|
E|--0-------2--3-------3-----------------------------------------------------|

THEN IT VARIES A LITTLE TO THIS:

e|---------------------------------------------------------------------------|
B|---------------------------------------------------------------------------|
G|---------------------5---4---7---------------------------------------------|
D|--2-------4--5-------5---4---7---------------------------------------------|
A|--2-------4--5-------3---2---5---------------------------------------------|
E|--0-------2--3-------3-----------------------------------------------------|


enjoy!!
Tap to rate this tab
# A B C D E F G H I J K L M N O P Q R S T U V W X Y Z