Song name
# A B C D E F G H I J K L M N O P Q R S T U V W X Y Z

Dag Nasty - All Ages Show tab

All Ages Show
Dag Nasty
Tabbed by RizzoWashburn
Standard Tuning (EADGBe)

Intro:
e|------------------------5---8--3~----| 
B|------------------------7---10-5~----| 
G|-88-8-88-8-77-7-77-7-77-7~--10-5~----| 
D|-88-8-88-8-77-7-77-7-77-7~--10-5~----| X2
A|-66-6-66-6-55-5-55-5-55-5~--8--3~----| 
E|-------------------------------------| 
   ..   ..   ..   ..   ..

Verse:
e|------------------------------8--3~--| 
B|------------------------------10-5~--| 
G|-88-8-88-8-77-7---------77-7--10-5~--| 
D|-88-8-88-8-77-7--5------77-7--10-5~--| X6
A|-66-6-66-6-55-5---h6p55-55-5--8--3~--| 
E|-------------------------------------| 
   ..   ..   ..           ..

Chorus:
e|---------------------------------------------| 
B|---------------------------------------------| 
G|------8888----------------8888------10101010-| 
D|-5555-8888-8888-3333-5555-8888-8888-10101010-| X2
A|-5555-6666-8888-3333-5555-6666-8888-8-8-8-8--| 
E|-3333------6666-1111-3333------6666----------| 
Tap to rate this tab
# A B C D E F G H I J K L M N O P Q R S T U V W X Y Z