Song name
# A B C D E F G H I J K L M N O P Q R S T U V W X Y Z

Dag Vag - Jag Vaknade Upp chords

Highlighted       Show chord diagrams
Artist/Band: Dag Vag
Kompositör: Stig Vig
Album: Kackerlacka (16/8 2006)
Tabbad av: Zacharias Lindberg


Intro/Verser/Mellanspel/Solo
   Am              D       Am
E|-----0-------0-------2-------0-----|
B|-------1-------1-------3--------1--|
G|---2-------2-------2-------2-------|
D|-----------------0-----------------|
A|-0-------0---------------0---------|
E|-----------------------------------|

Refräng 1
    C       G       D
E|------0-------3-------2-------2----|
B|--------1-------0-------3-------3--|
G|----0-------0-------2-------2------|
D|------------------0-------0--------|
A|--3--------------------------------|
E|----------3------------------------|

Refräng 2

   C       G       D               Am
E|-----0-------3-------2-------2-------0---------0---------0---------0----|
B|-------1-------0-------3-------3-------1---------1---------1---------1--|
G|---0-------0-------2-------2-------2---------2---------2---------2------|
D|-----------------0-------0----------------------------------------------|
A|-3-------------------------------0---------0---------0---------0--------|
E|---------3--------------------------------------------------------------|

   C       G       D               A5
E|-----0-------3-------2-------2--------|
B|-------1-------0-------3-------3------|
G|---0-------0-------2-------2----------|
D|-----------------0-------0--------7---|
A|-3--------------------------------7---|
E|---------3------------------------5---|

Refräng 3
   C       G       D               Am
E|-----0-------3-------2-------2-------0-------0-------0-------0---|
B|-------1-------0-------3-------3-------1-------1-------1-------1-|
G|---0-------0-------2-------2-------2-------2-------2-------2-----|
D|-----------------0-------0---------------------------------------|
A|-3-------------------------------0-------0-------0-------0-------|
E|---------3-------------------------------------------------------| x3

Outro (Ritardando)
   C       G        D
E|-----0-------3-------2--|
B|-------1-------0----3---|
G|---0-------0-------2----|
D|------------------0-----|
A|-3----------------------|
E|---------3--------------|

Intro: Am D Am x8

V
Am                  D Am
Vakna mitt i natten
Am                    D Am
Fatta inte var jag va
Am                 D Am
Hörde skumma röster
Am                   D Am
Fatta inte vad dom sa
Am                        D Am
Allt var mörkt omkring mej
Am               D Am
I rummet så svalt
Am                  D Am
Ett vitt, vitt ljus
Am              D Am
Där nån nyss va

Ref.1
     C         G           D
Men jag, jag, jag, jag, jag
           Am
Jag vaknade upp

Mellanspel: Am D Am x2

V.
Am                    D Am
Du måste andas så nån
Am                     D Am
How strange, tänkte jag
Am                  D Am
Är jag blå fråga jag
Am                   D Am
Är jag grön fråga jag
Am                   D Am
Är jag röd fråga jag
Am                     D Am
Är jag svart fråga jag
Am               D Am
Och längtade dit
Am             D Am
Där nån nyss va

Ref.2
     C         G           D
Men jag, jag, jag, jag, jag
             Am
Jag vaknade upp
C         G           D
Jag, jag, jag, jag, jag
            A5
Jag vaknade

(Ingen plockning/Spela ackorden)
A5 D5 A5 x8

A5                  D5 A5
Vakna mitt i natten
A5                    D5 A5
Fatta inte var jag va
A5                 D5 A5
Hörde skumma röster
A5                   D5 A5
Fatta inte vad dom sa
A5                        D5 A5
Allt var mörkt omkring mej
A5               D5 A5
I rummet så svalt
A5                  D5 A5
Ett vitt, vitt ljus
A5              D5 A5
Där nån nyss va

Ref.
     C5        G5          D5
Men jag, jag, jag, jag, jag
             A5
Jag vaknade upp
C5        G5          D5
Jag, jag, jag, jag, jag
             A5
Jag vaknade upp

(Plockning igen/spelas över gitarrsolot)
Mellanspel/Solo: Am D Am x13

Ref.3
     C         G           D
Men jag, jag, jag, jag, jag
             Am
Jag vaknade upp
C         G           D
Jag, jag, jag, jag, jag
             Am
Jag vaknade upp
     C         G           D
Men jag, jag, jag, jag, jag
             Am
Jag vaknade upp

Outro:
C         G           D
Jag, jag, jag, jag, jag



http://dagvag.se/nyheter/
Tap to rate this tab
 
# A B C D E F G H I J K L M N O P Q R S T U V W X Y Z