Song name
# A B C D E F G H I J K L M N O P Q R S T U V W X Y Z

Daggermouth - Hawt Lixx tab

Help us improve GuitareTab! Take a short survey!
DAGGERMOUTH 

HAWT LIXX

E FLAT TUNING

This song is pretty simple, just have to get the flow and the technique down pat. Please enjoy!

thanks Anthony

Intro

Eb----------------------------------------------------|
Bb----------------------------------------------------|
Gb---6-6-6-6---6-6-6-----6-6-6-----6-6-6--------------|
Db---6-6-6-6---6-6-6-7---6-6-6-2---6-6-6-4-4-----x2---|
Ab---4-4-0-4---4-4-0-7---4-4-0-2---4-4-0-4-4----------|
Eb-------------------5---------0---------2-2----------|

Verse

Eb---------------------------------|
Bb---------------------------------|
Gb---6-6-6-8-9-11------------------|
Db---6-6-x-x-x-x---4-4-4-6-7-------|
Ab---4-4-4-6-7-9---4-4-4-6-7-------|
Eb-----------------2-2-2-4-5-------|

Chorus

1st Guitar

Eb--------------------------|
Bb--------------------------|
Gb---4-4-4-6-6-6-2-2-2-2----|
Db---4-4-4-6-6-6-2-2-2-2----|
Ab---2-2-2-4-4-4-0-0-0-0----|
Eb---------------0-0-0-0----|

2nd Guitar

Play this riff 4 times, the first and third time you play it use hammer ons and pull offs

Eb-------6-----6--------|
Bb---4-5---4-5---4h5p4--|
Gb--------------------4-|
Db----------------------|
Ab----------------------|
Eb----------------------|

Second time, just pick the notes

Eb-------6-----6--------|
Bb---4-5---4-5---4-5-4--|
Gb--------------------4-|
Db----------------------|
Ab----------------------|
Eb----------------------|

2nd Verse

Eb------------|
Bb------------|
Gb---6-6-6----|
Db---6-6-6----|
Ab---4-4-4----|
Eb------------|

Eb---------------------------------|
Bb---------------------------------|
Gb-------------6-6-6-8-9-11--------|
Db---4-4-4-6-7-6-6-x-x-x-x---------|
Ab---4-4-4-6-7-4-4-4-6-7-9---------|
Eb---2-2-2-4-5---------------------|

Eb---------------------------------|
Bb---------------------------------|
Gb---6-6-6-8-9-11------------------|
Db---6-6-x-x-x-x---4-4-4-6-7-------|
Ab---4-4-4-6-7-9---4-4-4-6-7-------|
Eb-----------------2-2-2-4-5-------|

Outro

Eb------------------------|
Bb------------------------|
Gb---6-6-6-2-2------------|
Db---6-6-6-2-2-4-4---x2---|
Ab---4-4-4-0-0-4-4--------|
Eb---------0-0-2-2--------|

After this apply palm mute where indicated

Eb------------------------|
Bb------------------------|
Gb---6-6-6-2-2-2-2-----6--|
Db---6-6-6-2-2-2-2-4-4-6--|
Ab---4-4-4-0-0-0-0-4-4-4--|
Eb---------0-0-0-0-2-2----|
               x x

Play until the end

Sorry about the Outro riff, I'll get on that


Lyrics

The worst year of my life and I'm fighting so hard to survive

The one thing I cared about you destroyed despite

Repeated cries of no

You pinned her down and so, 

She cries in my arms each night

I know she put up such a fight


You better watch you fucking back

It's not that easy, yeah

It's hard to smile with no front teeth

You're cowardice we all see


I was instantly filled with regret

That night I should have gone with you

I've lost my self respect

And now I'm paralyzed with pain

I dropped to the floor and stayed 

And then my weeping turned to rage


You better watch you fucking back

It's not that easy, yeah

It's hard to smile with no front teeth

You're cowardice we all see


I know you're sitting back, 

Thinking you got away

Well it's been 7 years mother fucker!

And I'll never, never forget this!


Related for Hawt Lixx tab