Song name
# A B C D E F G H I J K L M N O P Q R S T U V W X Y Z

Dagoba - What Hell Is About tab

Dagoba
Die Tomorrow (...What if You Should)
What Hell is About
Drop-B
(H) = Harmonic

Intro (Tremolo picking)
Db|-----------------------------------|---------|
Ad|-----------------------------------|---------|
E |-----------------------------------|---------|
B |-----------------------------------|-///////-|
Gb|-------------------------------5-6-|-//////--|
B |-0-3-6---0-3-6-3---0-3-6---0-3-----|-//////--|


Db|---------------------------|
Ab|---------------------------|
E |---------------------8/7/8-|
B |-0-3--7-6-----0-3333-8/7/8-|
Gb|-0-3--7-6-----0-3333-6/5/6-|
B |-0-3--7-6-----0-3333-------|
                   ----

Db|----------------------------------|
Ab|----------------------------------|
E |----------------------------------|
B |-0-3--7-6-------------------------|
Gb|-0-3--7-6-------------------------|
B |-0-3--7-6-----0-33333333-66666666-|

Db|------------------------------|
Ab|------------------------------|
E |---------------------8/7------|
B |-0-3--7-------0-3333-8/7------|
Gb|-0-3--7-------0-3333-6/5-6(H)-|
B |-0-3--7-6(H)--0-3333----------|
                   ----

Db|----------------------------------|
Ab|----------------------------------|
E |----------------------------------|
B |-0-3--7---------------------------|
Gb|-0-3--7---------------------------|
B |-0-3--7-6(H)--0-33333333-66666666-|
Tap to rate this tab
# A B C D E F G H I J K L M N O P Q R S T U V W X Y Z