Guitaretab - guitar tabs
Song name
# A B C D E F G H I J K L M N O P Q R S T U V W X Y Z

Dahong Palay - Imortal tab

-------------------------------------------------------------------------------
			     Imortal  Dahong Palay
-------------------------------------------------------------------------------
Tabbed by: Joey L. Valbuena
Email:ulolzkie_24@yahoo.com
Friendster: joey_lim_valbuena@yahoo.com
Band:Black Peasants (Lucena City)

Tuning: Standard

LEGEND:
h-hammer
p-pull off
~-let ring
~^-let it cry
(no.)-optional chords
x-kill the sound
*NOTE*- copy and paste to microsoft word FONT:courier new SIZE:9 para tumama ung 
tapat ng mga keys and chords...
Intro:
*no distortion*
(PLAY 2 times)
e|--------------6--5---------------------------6---5------------------------|
B|-------6--5---------6--5---5h6-------6---5------------5h6p5---------------|
G|----7----------------------------7----------------------------------------|
D|--------------------------------------------------------------------------|
A|--------------------------------------------------------------------------|
E|--------------------------------------------------------------------------|

(PLAY 2 times)
e|---------------8--7------------------------8--7---------------------------|
B|--------8--7----------8--77h8-------8--7--------7h8p7--------------------|
G|----9----------------------------9----------------------------------------|
D|--------------------------------------------------------------------------|
A|--------------------------------------------------------------------------|
E|--------------------------------------------------------------------------|

(PLAY 2 times)
e|------------------10--9-----------------------------10--9-----------------|
B|---------10--9------------10--99h10--------10--9-----------9h10p9--------|
G|----11---------------------------------11---------------------------------|
D|--------------------------------------------------------------------------|
A|--------------------------------------------------------------------------|
E|--------------------------------------------------------------------------|
[ Tab from: http://www.guitaretab.com/d/dahong-palay/87181.html ]
THEN:
e|--------------6--5---------------------------6---5------------------------|
B|-------6--5---------6--5---5h6-------6---5------------5h6p5---------------|
G|----7----------------------------7----------------------------------------|
D|--------------------------------------------------------------------------|
A|--------------------------------------------------------------------------|
E|--------------------------------------------------------------------------|

e|--------------6--5---------------------------6---5------------------------|
B|-------6--5---------6--5---5h6-------6---5------------6~------------------|
G|----7----------------------------7----------------------------------------|
D|--------------------------------------------------------------------------|
A|--------------------------------------------------------------------------|
E|--------------------------------------------------------------------------|

PLAY 2 times (you have to figure out strumming and timing and palm mute)
*heavy slide down muna pagkabuhay nung distortion bgo i-hit ung unang key*
e|--------------------------------------------------------------------------|
B|--------------------------------------------------------------------------|
G|--------------------------------------------------------------------------|
D|----\2-----2--2--2--2------5~-----2-2----2--2--2--2----9~---5~------------|
A|----\2-----2--2--2--2------5~-----2-2----2--2--2--2----9~---5~------------|
E|-----0-----0--0--0--0------3~-----0-0----0--0--0--0----7~---3~------------|

PLAY 2 times (you figure out palm muting)
e|--------------------------------------------------------------------------|
B|--------------------------------------------------------------------------|
G|-----------------------------------------------------------12~^-----------|
D|---2-2-2-2-x---2-2-2-2-x---------2-2-2-2-x---2-2-2-2-x-----(5)~-----------|
A|---2-2-2-2-x---2-2-2-2-x---------2-2-2-2-x---2-2-2-2-x-----(5)~-----------|
E|---0-0-0-0-x---0-0-0-0-x---(3)---0-0-0-0-x---0-0-0-0-x-----(3)~-----------|

ITUTULOY KO ITO PAG ME NAG COMMENT AT may NAG RATE NA....
WALA KC SAYSAY KUNG WLA NMAN PLA TITINGIN KAYA HANGGANG D2 MUNA....