Song name
# A B C D E F G H I J K L M N O P Q R S T U V W X Y Z

Daily Terror - Krawall tab

Daily Terror
Krawall
tabbed by:sighund


sighund@hotmail.de

Intro1:
Lead
e|----12----12----------------------12----12-----------------|2x
B|-12----12----12-12-12-12-14----12----12----12-12--10-10----|
G|-----------------------------------------------------------|
D|-----------------------------------------------------------|
A|-----------------------------------------------------------|
E|-----------------------------------------------------------|

Intro2:
Lead
e|----12----12----------------------12----12-----------------|2x
B|-12----12----12-12-12-12-14----12----12----12-12--10-10----|
G|-----------------------------------------------------------|
D|-----------------------------------------------------------|
A|-----------------------------------------------------------|
E|-----------------------------------------------------------|
Rhytm
e|-----------------------------------------------------------|2x
B|-----------------------------------------------------------|
G|-9---------------------------------------------------------|
D|-9-11-9-7~-------------------------------------------------|
A|-7-11-9-7~-------------------------------------------------|
E|---9--7-5~-------------------------------------------------|

Intro3:
Lead
e|----12----12----------------------12----12-----------------|2x
B|-12----12----12-12-12-12-14----12----12----12-12--10-10----|
G|-----------------------------------------------------------|
D|-----------------------------------------------------------|
A|-----------------------------------------------------------|
E|-----------------------------------------------------------|
Rhytm
e|-----------------------------------------------------------|2x
B|-----------------------------------------------------------|
G|-99999-----------------------------------------------------|
D|-99999-11-11-11-11-11-99999-77777--------------------------|
A|-77777-11-11-11-11-11-99999-77777--------------------------|
E|-------9--9--9--9--9--77777-55555--------------------------|

Verse:
e|-----------------------------------------------------------|
B|-----------------------------------------------------------|
G|-99999-----------------------------------------------------|
D|-99999-11-11-11-11-11-99999-77777--------------------------|
A|-77777-11-11-11-11-11-99999-77777--------------------------|
E|-------9--9--9--9--9--77777-55555--------------------------|
pm   ***       *  *  *    ***   ***

Verse:
e|-----------------------------------------------------------|
B|-----------------------------------------------------------|
G|-99999-----------------------------------------------------|
D|-99999-11-11-11-11-11-9999-7777----------------------------|
A|-77777-11-11-11-11-11-9999-7777----------------------------|
E|-------9--9--9--9--9--7777-5555----------------------------|
pm   ***       *  *  *

e|-----------------------------------------------------------|
B|-----------------------------------------------------------|
G|-999-------------------------------------------------------|
D|-999-11-11-11--999-777-------------------------------------|
A|-777-11-11-11--999-777-------------------------------------|
E|-----9--9--9---777-555-------------------------------------|

e|-----------------------------------------------------------|
B|-----------------------------------------------------------|
G|-99--------------------------------------------------------|
D|-99-11-11-99-77--------------------------------------------|
A|-77-11-11-99-77--------------------------------------------|
E|----9--9--77-55--------------------------------------------|

Bridge:
e|-----------------------------------------------------------|
B|-----------------------------------------------------------|
G|-----------------------------------------------------------|
D|-99-777-11-11-11-999---77777-7777-6-7----------------------|
A|-99-777-11-11-11-999---77777-7777-6-7----------------------|
E|-77-555-9--9--9--777---55555-5555-4-7----------------------|

e|-----------------------------------------------------------|
B|-----------------------------------------------------------|
G|-----------------------------------------------------------|
D|-11~-99~-99~-99~-------------------------------------------|
A|-11~-99~-99~-99~-------------------------------------------|
E|-9-~-77~-77~-77~-------------------------------------------|

Chorus:
e|-----------------------------------------------------------|
B|-----------------------------------------------------------|
G|-----------------------------99999-------------------------|
D|-11-11-11-11-11--99999-77777-99999-------------------------|
A|-11-11-11-11-11--99999-77777-77777-------------------------|
E|-9--9--9--9--9---77777-55555-------------------------------|

e|-----------------------------------------------------------|
B|-----------------------------------------------------------|
G|------------------------------9----------------------------|
D|-11-11-11-11-11--99999--7--9--9----------------------------|
A|-11-11-11-11-11--99999--7--9--7----------------------------|
E|-9--9--9--9--9---77777--5--7-------------------------------|

Intro2

Verse

Bridge

Chorus 2x

Intro2

Intro3

Solo:
e|-------------------------15-15-14-14-12-12-------------------------|
B|-12-11-9-7-9-------------------------------15-15-13-13-12-12-11----|
G|-------------14-14-12-11-------------------------------------------|
D|-------------------------------------------------------------------|
A|-------------------------------------------------------------------|
E|-------------------------------------------------------------------|

e|-15-14-12----------------------------------------------------------|
B|----------15-13-12-------------------------------------------------|
G|-------------------15-15-15-15-15-13-13-13-13-13-12-12-12-12-12-11-|
D|-------------------------------------------------------------------|
A|-------------------------------------------------------------------|
E|-------------------------------------------------------------------|

Chorus 4x

End last chorus with:
e|-----------------------------------------------------------|
B|-----------------------------------------------------------|
G|------999999999999999999...--------------------------------|
D|-7--9-999999999999999999...-7------------------------------|
A|-7--9-777777777777777777...-7------------------------------|
E|-5--7-----------------------5------------------------------|
Tap to rate this tab
# A B C D E F G H I J K L M N O P Q R S T U V W X Y Z