Song name
# A B C D E F G H I J K L M N O P Q R S T U V W X Y Z

Daisuke Ishiwatari - Gale tab

 ----------------------------------------------
|Song: 	  Gale                                 |
|Artist:  Daisuke Ishiwatari                   |
|Album:	  BlazBlue: Calamity Trigger OST       |
 ----------------------------------------------
|Tabbed By:  ShadowFax77                       |
|e-mail:     nhutchens07@yahoo.com             |
 ----------------------------------------------

Tuning:	Standard (EADGBE)

Note:		Well, this is my first ever guitar tab.  After hearing this awesome song on the
BlazBlue Soundtrack, I just had to play it.  Unfortunately, nobody out there has tabbed
yet!  So I decided it was time to give this a shot.  I haven't been 	playing guitar
too long, but I think I did a pretty good job on this.  If any professional tabbers
to give this a 	makeover, please go right ahead.  Let me know what you think, and feel
to email me with comments or suggestions at the 			address above.  
P.S., this is only
main melody of the song (0:20-1:20), so the intro and guitar solo are not here.

Key:  h - Hammer on
      p - Pull off
      ~ - Vibrato
      / - Slide in to


                ~                          ~
E|-----------------|--------------------------|
B|-----------------|--------------------------|
G|------11-9-14-11-|-11-9---------------------|
D|-9-12------------|------12-11-12-11---------|
A|-----------------|------------------12-9-12-|
E|-----------------|--------------------------|

                                          ~
E|-------------------|-----------------------|
B|-------------------|-----------------------|
G|--------11-9-14-12-|-12-12-12-11-9-9----11-|
D|-9-9-12------------|-----------------12----|
A|-------------------|-----------------------|
E|-------------------|-----------------------|

                ~                          ~
E|-----------------|--------------------------|
B|-----------------|--------------------------|
G|------11-9-14-11-|-11-9---------------------|
D|-9-12------------|------12-11-12-11---------|
A|-----------------|------------------12-9-12-|
E|-----------------|--------------------------|

                                              ~
E|----------------------|------------------------|
B|----------------------|------------------------|
G|--------11-9-14/16-12-|-12-12-11-9----11-14-14-|
D|-9-9-12---------------|------------12----------|
A|----------------------|------------------------|
E|----------------------|------------------------|

                                ~
E|---------------------------------|-----------------------|
B|---------------------------------|-----------------------|
G|------------------14-12-11-12-11-|-----------------------|
D|-12-11-9-12-11-------------------|-9-12-11-12-11---------|
A|---------------12----------------|---------------12-9-12-|
E|---------------------------------|-----------------------|


E|-----------------------|-----------------------------|
B|-----------------------|-----------------------------|
G|-----------------14-14-|-16-12-11-12-11----12-11-9-9-|
D|-9-9-11-12----12-------|----------------12-----------|
A|-----------12----------|-----------------------------|
E|-----------------------|-----------------------------|


E|---------------------10-12-|-----------10-12-14-15-14-15-14-12-|
B|-8-10-12-10-10-10-10-------|-10-10-10--------------------------|
G|---------------------------|-----------------------------------|
D|---------------------------|-----------------------------------|
A|---------------------------|-----------------------------------|
E|---------------------------|-----------------------------------|


E|-14-15-17-19-14-14-12-14-14-12-14-15-17-15-14-12-|
B|-------------------------------------------------|
G|-------------------------------------------------|
D|-------------------------------------------------|
A|-------------------------------------------------|
E|-------------------------------------------------|


E|-------------10-12-|----------10-12-14-15-14-15-14-12-|
B|-10-10-10-10-------|-10-10-10-------------------------|
G|-------------------|----------------------------------|
D|-------------------|----------------------------------|
A|-------------------|----------------------------------|
E|-------------------|----------------------------------|

                        h  p                                      ~
E|-14-15-17-19-17-15-14-15-14-12-|----------------9-10----12-10-9-10-|
B|-------------------------------|-15-14-12-11-12------10------------|
G|-------------------------------|-----------------------------------|
D|-------------------------------|-----------------------------------|
A|-------------------------------|-----------------------------------|
E|-------------------------------|-----------------------------------|
Tap to rate this tab
 
# A B C D E F G H I J K L M N O P Q R S T U V W X Y Z