Song name
# A B C D E F G H I J K L M N O P Q R S T U V W X Y Z

Daisuke Ishiwatari - Blue Water Blue Sky tab

"Blue Water Blue Sky" from the Guilty Gear XX OST
Tuning - Standard

Lead Guitar
INTRO
|---------------------------------------------------------------
|---------------------------------------------------------------
|---------------------------------------------------------------
|------2-----2-----2-----2---2-------2-----2-----2-----2---2----
|---------------------------------------------------------------
|--2-2---2-2---2-2---2-2---2---2-4-4---4-4---4-4---4-4---4---4--
   . .   . .   . .   . .   .   . . .   . .   . .   . .   .   .

------------------------------------|--9-11-12--11-------------|
------------------------------------|---------------10/12--10--|
------------------------------------|--------------------------|
-----2-----2-----2-----2---2--4-4-4-|--------------------------|
-0-0---0-0---0-0---0-0---0----2-2-2-|--------------------------|
------------------------------------|--------------------------|
 . .   . .   . .   . .   .      .

|---------------------------------------------------------------
|---------------------------------------------------------------
|---------------------------------------------------------------
|------2-----2-----2-----2---2-------2-----2-----2-----2---2----
|---------------------------------------------------------------
|--2-2---2-2---2-2---2-2---2---2-4-4---4-4---4-4---4-4---4---4--
   . .   . .   . .   . .   .   . . .   . .   . .   . .   .   .

---------------------------------------------------------------|
---------------------------------------------------------------|
---------------------------------------------------------------|
------2-----2-----2-----2---2---4-4-4-4-4-4--------------------|
--0-0---0-0---0-0---0-0---0-----2-2-2-2-2-2--6-6-6-6-6-6-------|
---------------------------------------------4-4-4-4-4-4-------|
  . .   . .   . .   . .   .       .   . .      .   . .    

VERSE
|-------------------------------------------------------------------------------|
|---------12----------------------12---10-9-----------------9~------------------|
|--/9---8-------8-9-------8-9---------------11-9-----8-9-11------8---8-9--------|
|-----9-------9---------9-------9----9-----------------------------9-----11--9--|
|-------------------------------------------------------------------------------|
|-------------------------------------------------------------------------------|

|----------------------------------------------------------------------------|
|---------12----------------------12---10-9-----------------9~---------------|
|--/9---8-------8-9-------8-9---------------11-9-----8-9-11------8---8-9-----|
|-----9-------9---------9-------9----9-----------------------------9-----11~-|
|----------------------------------------------------------------------------|
|----------------------------------------------------------------------------|

|------------------------------------------------------------------/12---11-|
|---------9-10--9-10-12-------/9-----9-10--9----------------9--10-----------|
|-8--9-11----------------11-9----11----------8--9---8-9-11------------------|
|---------------------------------------------------------------------------|
|---------------------------------------------------------------------------|
|---------------------------------------------------------------------------|

|-----------------------------------|
|-----------------------------------|
|-----------------------------------|
|------2-----2-----2---2---2p1------|
|------------------------------2----|
|--2-2---2-2---2-2---2---2----------|
   . .   . .   . .   .   .

CHORUS
|---------------------------------------------------------------
|--------12--------12---9-9h10p9------9-9h10p9--12--9-----------
|--/9--8-----8-9-8---------------9---------------------9--11--9-
|-----------------------------------9---------------------------
|---------------------------------------------------------------
|---------------------------------------------------------------

---------------------------------------------------------------|
----12---------12b14---9-9h10p9------9-9h10p9--12--9-----------|
--8-----8-9--8------------------9---------------------9--11--9-|
-----------------------------------9---------------------------|
---------------------------------------------------------------|
---------------------------------------------------------------|

Repeat all. Then play another intro, then end with:

|-------------------|
|-------------------|
|-------------------|
|--2-2-2--2-2-2-2---|
|-------------------|
|--2-2-2--2-2-2-2---|

Legend:
h = hammer on
p = pull off
b = bend
/ = slide
~ = vibrato
. = palm mute

*note - this guitar tab is only for the lead guitar.
Tap to rate this tab
# A B C D E F G H I J K L M N O P Q R S T U V W X Y Z