Song name
# A B C D E F G H I J K L M N O P Q R S T U V W X Y Z

Daisuke Ishiwatari - White Requiem tab

Blazblue: Calamity Trigger Soundtrack
White Requiem
Daisuke Ishiwatari

Tabbed by
Dekunut (UG/Gametabs)
Dekunut1 (Youtube)
Spalding007 (PSN)
dekunut316@hotmail.com (MSN)
8/02/11

Ver 1.00
Last Update: n/a


| /   slide up
| \   slide down
| h   hammer-on
| p   pull-off
| ~   vibrato
| +   harmonic
| PM  Palm mute
| b   Bend
| pb  Pre-bend
| br  Bend release
| pbr Pre-bend release
| brb Bend release bend
| x   Repeat bar # of times

| W   Whole Note
| H   Half Note
| Q   Quarter Note
| E   Eighth Note
| S   Sixteenth Note
| t   Tied-Note
| .   Dotted Note


Tuning: Drop D - DADGBe



	Intro


e --------------------------------|
B --------------------------------|
G --------------------------------|
D --------------------------------|
A --------------------------------| X4
D --------------------------------|


	Opening Riff
	(Rhythm Guitar)


e --------------------------------|
B --------------------------------|
G 7-------6-------7\--------------|
D 7-------6-------7\--------------|
A 5-------4-------5\--------------|
D --------------------------------|
  Q       Q       H

  PM-|    PM-|    PM-|    PM-|
e --------------------------------|
B --------------------------------|
G --------------------------------|
D ----5-------5-------3-------3---|
A ----5-------5-------3-------3---|
D 5-5-5---5-5-5---3-3-3---3-3-3---|
  S S E   S S E   S S E   S S E


e --------------------------------|
B --------------------------------|
G 7-------6-------7\--------------|
D 7-------6-------7\--------------|
A 5-------4-------5\--------------|
D --------------------------------|
  Q       Q       H

  PM-|   PM-|    PM-|     PM-|
e --------------------------------|
B --------------------------------|
G --------------------------------|
D ----5-------5-------7-------7---|
A ----5-------5-------7-------7---|
D 5-5-5---5-5-5---7-7-7---7-7-7---|
  S S E   S S E   S S E   S S E


e --------------------------------|
B --------------------------------|
G 7-------6-------7\--------------|
D 7-------6-------7\--------------|
A 5-------4-------5\--------------|
D --------------------------------|
  Q       Q       H

  PM-|   PM-|    PM-|     PM-|
e --------------------------------|
B --------------------------------|
G --------------------------------|
D ----5-------5-------3-------3---|
A ----5-------5-------3-------3---|
D 5-5-5---5-5-5---3-3-3---3-3-3---|
  S S E   S S E   S S E   S S E


e --------------------------------|
B --------------------------------|
G --------------------------------|
D 0---------------2---------------|
A 0---------------2---------------|
D 0---------------2---------------|
  H               H

      PM- - - - - - -|    PM-|
e --------------------------------|
B --------------------------------|
G --------------------------------|
D 5-------------------7-------7---|
A 5-------------------7-------7---|
D 5---5-5-5-5-5-5-7-7-7---7-7-7---|
  E   S S S S S S S S E   S S E

  PM- - - -|      PM- - - -|
e --------------------------------|
B --------------------------------|
G ----------7---------------7-----|
D ----------7---------------7-----|
A ----------5---------------5-----| x3
D 0-0-0-0-0-------0-0-0-0-0-------|
  S S S S S E.    S S S S S E.


e --------------------------------|
B --------------------------------|
G --------------------------6-----|
D 8-5-7---5-----------------6-----|
A ------8---8-7-5-8-7-5-4-5-4-----|
D --------------------------------|
  S S S S S S S S S S S S S E.


	Verse
	(Lead Guitar)


e --------------------------------------------------------------|
B /10~------------10----8-----6---5h6p5~------6---8-------5---6-|
G ----------7-----------------------------------------5---------|
D --------------------------------------------------------------|
A --------------------------------------------------------------|
D --------------------------------------------------------------|
  QtE.      E.    E.    E.    E   S S Q       E   E   E   E   E


e --------------------------------------------------------------|
B 8---6p5-------5-6-----5---------------------------------------|
G --------7-------------------7---------------------------------|
D --------------------------------8-----7~----------------------|
A --------------------------------------------------------------|
D --------------------------------------------------------------|
  E   S S E.    S E.    E.    E   E.    HtE.


e --------|
B --------|
G 7-6-7-9-|
D --------|
A --------|
D --------|
  S S S S 


e --------------------------------------------------------------|
B /10~------------10----8-----6---5h6p5~------6---8-------5---6-|
G ----------7-----------------------------------------5---------|
D --------------------------------------------------------------|
A --------------------------------------------------------------|
D --------------------------------------------------------------|
  QtE.      E.    E.    E.    E   S S Q       E   E   E   E   E


e --------------------------------------------------------------|
B 8---6p5-------5-6-----8-----6--/8~-------------/10~-----------|
G --------7-----------------------------------------------------|
D --------------------------------------------------------------|
A --------------------------------------------------------------|
D --------------------------------------------------------------|
  E   S S E.    S E.    E.    E   H               H


	Pre-Chorus
	(Rhythm Guitar)

      PM- - - - -|   PM-|
e --------------------------------------------------------------|
B --------------------------------------------------------------|
G ----------------------------------------------6-------6-------|
D 8---------------8-----------------------------6-------6-------|
A 8---------------8-----------------------------4-------4-------|
D 8---8-8-8-8-8-8-8---8-8-8-7-5---7---0---3---0-----------------|
  E   S S S S S S E   S S S S E   E   E   E   S Q       Q


e --------------------------------------------------------------|
B --------------------------------------------------------------|
G 5-----------4-----------3-------2-----------------------------|
D 5-----------4-----------3-------2---------------5-------------|
A 3-----------2-----------1-------0---------------5-------------|
D ------------------------------------------------5-------------|
  Q.          Q.          Q       H               H

      PM- - - - -|   PM-|
e --------------------------------------------------------------|
B --------------------------------------------------------------|
G ----------------------------------------------6-------6-------|
D 8---------------8-----------------------------6-------6-------|
A 8---------------8-----------------------------4-------4-------|
D 8---8-8-8-8-8-8-8---8-8-8-7-5---7---0---3---0-----------------|
  E   S S S S S S E   S S S S E   E   E   E   S Q       Q

                                                 ???
e --------------------------------------------------------------|
B --------------------------------------------------------------|
G 5-----------4-----------3-------2---------------6-------------|
D 5-----------4-----------3-------2---------------6-------------|
A 3-----------2-----------1-------0---------------4-------------|
D --------------------------------------------------------------|
  Q.          Q.          Q       H               H

	Chorus
	(Lead Guitar)

  PM
e --------------------------------8---6-------------------------|
B --------6---------------8---10----------10-8-7-8-10~----------|
G ----7-----------9p7h9-----------------------------------------|
D 0-------------------------------------------------------------|
A --------------------------------------------------------------|
D --------------------------------------------------------------|
  E   E   Q       S S E   E    E   E   E   S  S S S H


e --------------------------------------------------------------------------|
B 8-10-11-10-8--------------------------------------------------------------|
G -------------10-9-12-9--------9-----------------------------------6~------|
D -----------------------11-12------7---5---------------7p5h7~--------------|
A ------------------------------------------7---4---------------------------|
D --------------------------------------------------------------------------|
  S S  S  S  S S  S S  S S  E   E   E   E   E   Q       S S Q       Q

  PM
e --------------------------------8---6-------------------------|
B --------6---------------8---10----------10-8-7-8-10~----------|
G ----7-----------9p7h9-----------------------------------------|
D 0-------------------------------------------------------------|
A --------------------------------------------------------------|
D --------------------------------------------------------------|
  E   E   Q       S S E   E    E   E   E   S  S S S H


e ----------------------------------------------------------------------------------|
B 8-10-11-10-8-------------------------------------------------------8--------------|
G -------------10-9-12-9--------9-------6---7~----------10-9-10--7-------9---7~-----|
D -----------------------11-12------7-----------------------------------------------|
A ----------------------------------------------------------------------------------|
D ----------------------------------------------------------------------------------|
  S S  S  S  S S  S S  S S  E   E   E   E   Q.          S  S E   E   E   E   Q

	Middle Eight
	(Lead Guitar)

      PM- - - - - - - - - - - -|
e --------------------------------------------------------------|
B --------------------------------------------------------------|
G --------------------------------------------------------------|
D 7-------------------------------------------------------------|
A ----5---8---4---5---------------------------------------------|
D --------------------7---8---5---------------------------------|
  E   E   E   E   E   E   E   E

Tabbed by ear. This is how I play the song. I think it sounds accurate but let me 
know if there's any mistakes and I'll correct them. A few parts are still missing.
I'll be sure to finish the rest eventually. Feel free to comment, rate, flame, or troll.
Tap to rate this tab
 
# A B C D E F G H I J K L M N O P Q R S T U V W X Y Z