Song name
# A B C D E F G H I J K L M N O P Q R S T U V W X Y Z

Daisuke Ishiwatari - A Simple Life tab

A Simple Life Tab by Daisuke Ishiwatari
Tab: Written by Raymond Van Liew (vanliewr13@yahoo.com)


Intro: Repeat this until verse
E|------------------------------------|  
B|-----8-----8---10-8-----7-8-7-------|  
G|---7-----7---7--------7-------7-----|  
D|-7-----7------------7-----------7---|  
A|------------------------------------|  
E|------------------------------------|  



Verse 1(Play after intro)
E|------9-10-9---------------------10-9----------------------|
B|---10--------10--------------10-------10-10----10----------|
G|-9--------------11-9-7-6-7------------------12----12-9-----|
D|-----------------------------------------------------------|
A|-----------------------------------------------------------|
E|-----------------------------------------------------------|

E|-10-9--------------------9-----------------12-9------------|
B|------10-10-------------------8-10-8-10-7-------10---------|
G|------------12-11-9-7-9------------------------------------|
D|-----------------------------------------------------------|
A|-----------------------------------------------------------|
E|-----------------------------------------------------------|

E|-9-12--10-9-10-9-10-12-10-9---------17-16-14-14-12---------|
B|------------------------------12-10------------------------|
G|-----------------------------------------------------------|
D|-----------------------------------------------------------|
A|-----------------------------------------------------------|
E|-----------------------------------------------------------|

E|-----------------17-16-17---17-19-17-16--------------------|
B|-14-17-15-14-15-------------------------17-19-17-----------|
G|-----------------------------------------------------------|
D|-----------------------------------------------------------|
A|-----------------------------------------------------------|
E|-----------------------------------------------------------|



Solo
E|----19-19-19-16-17-----------------------------------------|
B|-17---------------------15--17----------15-17--------------|
G|--------------------------------16-------------------------|
D|-----------------------------------------------------------|
A|-----------------------------------------------------------|
E|-----------------------------------------------------------|

e|-17-16-17-19-17-19-21-17---------19-19--19-21-17-----------|
B|------------------------------17---------------------------|
G|-----------------------------------------------------------|
D|-----------------------------------------------------------|
A|-----------------------------------------------------------|
E|-----------------------------------------------------------|

E|--------16--17-----------17-16-17-19-18-19-21-21-----------|
B|-17-19-------------15-17-----------------------------------|
G|-----------------------------------------------------------|
D|-----------------------------------------------------------|
A|-----------------------------------------------------------|
E|-----------------------------------------------------------|

E|-17-22-21-17-19-17-17--------------------------------------|
B|-----------------------------------------------------------|
G|-----------------------------------------------------------|
D|-----------------------------------------------------------|
A|-----------------------------------------------------------|
E|-----------------------------------------------------------|



Back to intro: Repeat until verse again

E|------------------------------------|  
B|-----8-----8---10-8-----7-8-7-------|  
G|---7-----7---7--------7-------7-----|  
D|-7-----7------------7-----------7---|  
A|------------------------------------|  
E|------------------------------------|  



Verse 2(Play after intro)
E|------9-10-9---------------------10-9----------------------|
B|---10--------10--------------10-------10-10----10----------|
G|-9--------------11-9-7-6-7------------------12----12-9-----|
D|-----------------------------------------------------------|
A|-----------------------------------------------------------|
E|-----------------------------------------------------------|

E|-10-9--------------------9-----------------12-9------------|
B|------10-10-------------------8-10-8-10-7-------10---------|
G|------------12-11-9-7-9------------------------------------|
D|-----------------------------------------------------------|
A|-----------------------------------------------------------|
E|-----------------------------------------------------------|

E|-9-12--10-9-10-9-10-12-10-9---------17-16-14-14-12---------|
B|------------------------------12-10------------------------|
G|-----------------------------------------------------------|
D|-----------------------------------------------------------|
A|-----------------------------------------------------------|
E|-----------------------------------------------------------|

E|-----------------17-16-17---17-19-17-16--------------------|
B|-14-17-15-14-15-------------------------17-19-17-----------|
G|-----------------------------------------------------------|
D|-----------------------------------------------------------|
A|-----------------------------------------------------------|
E|-----------------------------------------------------------|




Solo again
E|----19-19-19-16-17-----------------------------------------|
B|-17---------------------15--17----------15-17--------------|
G|--------------------------------16-------------------------|
D|-----------------------------------------------------------|
A|-----------------------------------------------------------|
E|-----------------------------------------------------------|

E|-17-16-17-19-17-19-21-17---------19-19--19-21-17-----------|
B|------------------------------17---------------------------|
G|-----------------------------------------------------------|
D|-----------------------------------------------------------|
A|-----------------------------------------------------------|
E|-----------------------------------------------------------|

E|--------16--17-----------17-16-17-19-18-19-21-21-----------|
B|-17-19-------------15-17-----------------------------------|
G|-----------------------------------------------------------|
D|-----------------------------------------------------------|
A|-----------------------------------------------------------|
E|-----------------------------------------------------------|

E|-17-22-21-17-19-17-17--------------------------------------|
B|-----------------------------------------------------------|
G|-----------------------------------------------------------|
D|-----------------------------------------------------------|
A|-----------------------------------------------------------|
E|-----------------------------------------------------------|



Intro again: Repeat this until verse 3
E|------------------------------------|  
B|-----8-----8---10-8-----7-8-7-------|  
G|---7-----7---7--------7-------7-----|  
D|-7-----7------------7-----------7---|  
A|------------------------------------|  
E|------------------------------------| 




Verse 3(Play after intro)
 
E|-9-12--10-9-10-9-10-12-10-9---------17-16-14-14-12---------|
B|------------------------------12-10------------------------|
G|-----------------------------------------------------------|
D|-----------------------------------------------------------|
A|-----------------------------------------------------------|
E|-----------------------------------------------------------|

E|-----------------17-16-17---17-19-17-16--------------------|
B|-14-17-15-14-15-------------------------17-19-17-----------|
G|-----------------------------------------------------------|
D|-----------------------------------------------------------|
A|-----------------------------------------------------------|
E|-----------------------------------------------------------|




Solo again
E|----19-19-19-16-17-----------------------------------------|
B|-17---------------------15--17----------15-17--------------|
G|--------------------------------16-------------------------|
D|-----------------------------------------------------------|
A|-----------------------------------------------------------|
E|-----------------------------------------------------------|

E|-17-16-17-19-17-19-21-17---------19-19--19-21-17-----------|
B|------------------------------17---------------------------|
G|-----------------------------------------------------------|
D|-----------------------------------------------------------|
A|-----------------------------------------------------------|
E|-----------------------------------------------------------|

E|--------16--17-----------17-16-17-19-18-19-21-21-----------|
B|-17-19-------------15-17-----------------------------------|
G|-----------------------------------------------------------|
D|-----------------------------------------------------------|
A|-----------------------------------------------------------|
E|-----------------------------------------------------------|

E|-17-22-21-17-19-17-17--------------------------------------|
B|-----------------------------------------------------------|
G|-----------------------------------------------------------|
D|-----------------------------------------------------------|
A|-----------------------------------------------------------|
E|-----------------------------------------------------------|



Intro last time: Repeat this until end part
E|------------------------------------|  
B|-----8-----8---10-8-----7-8-7-------|  
G|---7-----7---7--------7-------7-----|  
D|-7-----7------------7-----------7---|  
A|------------------------------------|  
E|------------------------------------| 



End Part(Play this after intro last time)
E|------------------------------------|  
B|-------8--------10------------------|  
G|---7-9------7-9---------------------|  
D|-7--------7-------------------------|  
A|------------------------------------|  
E|------------------------------------|
Tap to rate this tab
# A B C D E F G H I J K L M N O P Q R S T U V W X Y Z