Song name
# A B C D E F G H I J K L M N O P Q R S T U V W X Y Z

Dakmie - Yang Terindah tab

Artist: Dakmie ( http://dakmie.nasyeed.my/ )
Tittle: Yang Terindah (OST Adamaya)
Tabs and chords by: .::CrazeechildZ::.
E-mail: crazeechildz@gmail.com

Tuning: Standard

Hope U guy`s will like it !
Enjoy !!


[intro]

E------------------------------------------------------|
B--------------------15~--15/17--13--13-12--13/15------|
G----16~--17-16-14-12----------------------------16~---|
D--12--------------------------------------------------|
A------------------------------------------------------|
E------------------------------------------------------|

E------------------------------------------------------|
B------------------------------------------------------|
G--12-14----12-14-16-17-16-14-12-----------------------|
D---------------------------------10/12--10------------|
A------------------------------------------------------|
E------------------------------------------------------|


G Am Bm C D 
Semenjak kau hadir dalam hidupku

G Am Bm C D
Tiada lagi keresahan

G Am Bm C D 
Kau mengetuk pintu hatiku

G Am Bm C D
Tanpa sedar hingga ku izinkan

[chorus]

C D G
Kau yang bernama cinta

Am D G
Kau yang memberi rasa

C D G Bm Em
Kau yang ilhamkan bahagia

C D G
Hingga aku terasa indah


[solo]

E-----------------------------------------------------------------|
B--------------------------------15~-15-15--15-13---13\12---13\12-|
G---------------16~--17-16-14-12----------------------------------|
D---------12-14---------------------------------------------------|
A--12h14----------------------------------------------------------|
E-----------------------------------------------------------------|

E-----------------------------------------------------------------|
B-12--------------------------------------------------------------|
G---12------------------------------------------------------------|
D------10-10-9-9--9-10~---12-14-12---12-14---16/17-17~~-----------|
A-----------------------------------------------------------------|
E-----------------------------------------------------------------|


G Am Bm C D
Maaf jikaku tidak sempurna

G Am Bm C D
Tika bahagia mula menjelma

G Am Bm C D
Bila keyakinan datang merasa 

G Am Bm C D 
Kasih disalut dengan kejujuran


C D G
Mencintai dirimu

Am D G 
Merindui dirimu

C D Bm Em C D G
Memiliki dirimu Hingga akhir hayat bersama kamu


C D G 
Kau yang bernama cinta

Am D G
kau yang memberi rasa

C D G Bm Em
Kau yang ilhamkan bahagia

C D G
Hingga aku terasa indah

C D G 
Kau yang bernama cinta

C D G
Hingga aku terasa indah


SUPPORT OUR LOCAL ARTISTS !! PEACE =D
Tap to rate this tab
 
# A B C D E F G H I J K L M N O P Q R S T U V W X Y Z