Song name
# A B C D E F G H I J K L M N O P Q R S T U V W X Y Z

Dakota - Wannabe Barbie tab

this is a really cool song and everyone should learn it the band is wicked and i reckon the rythm 
and the singer are well fit so here it is..
verse/intro:
---------------------------------------------------------|
---------------------------------------------------------|
-7-7-7-7---------5-5-5-5---------7-7-7-7---------5-5-5-5-|
-7-7-7-7--7-7-7--5-5-5-5--5-5-5--7-7-7-7--7-7-7--5-5-5-5-|
-5-5-5-5--7-7-7--3-3-3-3--5-5-5--5-5-5-5--7-7-7--3-3-3-3-|
----------5-5-5-----------3-3-3-----------5-5-5----------|

-------|
-------|
-------|
-5-7-7-|
-5-7-7-|
-3-5-5-|

bridge;
---------------------------------------------------------------|
---------------------------------------------------------------|
-11-11-11-11-11-11-11-11-------------------9-9-9-9-9-9-9-9--11-|
-11-11-11-11-11-11-11-11--9-9-9-9-9-9-9-9--9-9-9-9-9-9-9-9--11-|
- 9- 9- 9- 9- 9- 9- 9- 9--9-9-9-9-9-9-9-9--7-7-7-7-7-7-7-7-- 9-|
--------------------------7-7-7-7-7-7-7-7----------------------|
(let last chord ring)

chorus;
--------------------------------------------------------------------|
--------------------------------------------------------------------|
--------------------------------------------------------------------|
-12-12-12--12-12-12--9-9-9--7-7-7--5-5-5--4-4-4--2-2-2--5-5-5-5 x 2-|
-12-12-12--12-12-12--9-9-9--7-7-7--5-5-5--4-4-4--2-2-2--5-5-5-5-----|
-10-10-10-- 9- 9- 9--7-7-7--5-5-5--3-3-3--2-2-2--0-0-0--3-3-3-3-----|

(on he last chorus the last chord is played 8 times the first time round


if you dont like this song you are insane because it is the best song in the world !!!!!!!! ever ....no 
it is
Tap to rate this tab
# A B C D E F G H I J K L M N O P Q R S T U V W X Y Z