Song name
# A B C D E F G H I J K L M N O P Q R S T U V W X Y Z

Daleka Obala - Slavuj tab

-------------------------------------------------------------------------------
			     Slavuj - Daleka Obala
-------------------------------------------------------------------------------
Tabbed by:Juraj Ahel
Email:xeniorn@hotmail.com

Tuning:EADGBe (standard tuning)


intro:

e|-----------5----5-6------5/6\5-----------------5-------10/12-12-13-13-|
B|-6---6/5\6---------------------8-6-5-----6/5\6------------------------|
G|-------------------------------------7--------------------------------|
D|----------------------------------------------------------------------|
A|----------------------------------------------------------------------|
E|----------------------------------------------------------------------|

e|-12/13\12--------|
B|-----------------|
G|-----------------|
D|-----------------|
A|-----------------|
E|-----------------|


************************************

| /   slide up
| \   slide down

************************************


Dm              F
Vjetar je lomio grane stabala
  Bb              A          Dm
A jedan je slavuj   pjevao u noci
      F            Bb            A
Tuznu pjesmu rezak zvuk je parao noc


Dm              F
Dugo je dugo je slagao tonove
Bb               A            Dm
  Dugo je pjevao   pjesmu o samoci
       F             Bb            A
Tuznom pjesmom on je zove da li ce doc'


         Dm        F
Da li ce doc'
       Bb         A            Dm
Pored njega da je   prigrli uz sebe
      F         Bb        A
Da je vodi bilo gdje bilo gdje


Dm               F               
Pjesma je jacala pjesma je zvonila
Bb           A                  Dm
On je unosio posljednje drhtaje svoje
     F            Bb
U tu pjesmu tuznu pjesmu
          A
A bio je sam


Dm                 F              Bb
   Samo bi ponekad zastao kada bi vidio
      A                  Dm
Da i zvijezde svijetle u dvoje
     F           Bb            A
A on pjeva tuznu pjesmu sasvim sam
        Dm
Sasvim sam

[1x intro]

[verse 4]
[verse 5]
Tap to rate this tab
 
# A B C D E F G H I J K L M N O P Q R S T U V W X Y Z