Daleka Obala - Mojoj Lijepoj chords

Highlighted       Show chord diagrams
Uvodni solo:
e-----------------------------  ---------------------------|
H---------1---1-3-1-----------  -------1---1-3-1-----------|
G--2--4---------------4-2-0-2-  2--4---------------4-2-0-2-|
D-----------------------------  ---------------------------|
A-----------------------------  ---------------------------|
E-----------------------------  ---------------------------|

         2x
e---------0---0-1-0--0----------  -------------------------|
H--1-3------------------3-3-1-3-  --------1-1--3-3-1-------|
G-------------------------------  --2-4----------------4-2-|
D-------------------------------  -------------------------|
A-------------------------------  -------------------------|
E-------------------------------  -------------------------|

          Am
Ja sam je gledao u svitanje dana
                             E
u tihim nocima od zvjezdanog sna

rumenim sutonima ona me ljubi
                            Am
zelenim poljima i beskrajem dna.

Ja sam je gledao kroz kapljice kise
ona je svijetlo sto me vodi kroz noc
olujnim vjetrovima ona me njise
ona je ljubav koja ne moze proc.

       Am
Ja bih ugledo sunce kad bih ugledo nju
ja bih imao ljepotu da je pored mene tu
      C                       G
ja sm znao da cu svoju ljubav pokloniti njoj
      F       G             Am
mojoj lijepoj zemlji Hrvatskoj
       C                       G
ja sam znao da cu svoju ljubav pokloniti njoj
      F       G               Am
mojoj lijepoj zemlji Hrvatskoj.

Solo.

Ja sam je gledao u svitanje dana...
Ja samje gledao kroz kapljice kise...
Ja bih ugledao sunce kad bih ugledao nju...

Solo.

Ref.

Ja sam znao da cu svoju ljubav pokloniti njoj
mojoj lijepoj zemlji Hrvatskoj.
Tap to rate this tab
 
# A B C D E F G H I J K L M N O P Q R S T U V W X Y Z