Dallas Green - The Girl tab

This started off as correction of what Bayx posted, because I noticed his time signature
didn't make any sense and the capo was off from what Dallas Green plays (4/4 time
signature and 2nd capo).  Then, I noticed a ton of mistakes, so here's a completely new tab.

I tabbed this using the Myspace Transmissions video on youtube, so go to that before you
make any comments.  I play everything with my thumb and middle finger (Dallas uses
thumb and ring finger).  Feel free to be sloppy with the thumb on the low notes because 
he sometimes does sort of a strum/tap thing.


Capo 2

4/4 time signature


INTRO

        G                                                                        Em
e|--------0--------------------------------------------------------------|
B|----3-------3-----------------------------0-----------------0----------|
G|----------------0---0---0---0---0---0---------0---0---0---------0---0--|
D|--------------------------------------0h2-------2-------0h2----- ------|
A|------------------------------------------------------------------2----|
E|--3---3---3---3---3---3---3---2---0---------0-------0---------0--------|

        Cmaj7                           Gmaj7                        G
e|------------------------------------------------------------------------|
B|--------0---------------0-----------------0---------------3-------------|
G|----0-------0---0---0-------0---0---0---------0---0---0-------0---0-----|
D|------2---2-----------4---4---------------------------------------------|
A|--3-----------3---5-----------5-------0h2-------------------------------|
E|----------------------------------3---------3---3---3---3---3---3-------|



         G                                                                       Em
e|--------------------------------0---------0-----------------0----------|
B|----3-----------------------3-----------------0-----------------0------|
G|--------0---0---0---0---0-----------0-------------0---0-------------0--|
D|--------------------------------------0h2-------2-------0h2----- ------|
A|------------------------------------------------------------------2----|
E|--3---3---3---3---3---3---3---2---0---------0-------0---------0--------|

        Cmaj7                           Gmaj7                         G
e|------------------------------------------------------------------------|
B|--------0---------------0-----------------0-----------------0-----------|
G|----0-------0---0---0-------0---0---0---------0---0---0---------0---0---|
D|------2---2-----------4---4---------------------------------------------|
A|--3-----------3---5-----------5-------0h2---------------0h2-------------|
E|----------------------------------3---------3---3---3---------3---3-----|



If you think something might be messed up, then let me know, but I'm pretty certain it's
all correct, especially compared to the other one.  Feel free to post in the comments.


**Do not try and strum this chord progression as it is listed.  The strummed chords have
additional notes (7ths and stuff) and some chords almost completely change names (i.e.
Gmaj7 turns into a D/E variation).


PLEASE RATE!!!!
Tap to rate this tab
 
# A B C D E F G H I J K L M N O P Q R S T U V W X Y Z