Song name
# A B C D E F G H I J K L M N O P Q R S T U V W X Y Z

Dallas Green - Sometimes I Wish tab

Tabbed by: Dakota Allen

Tuning: Standard (EADGBe) with a capo on the 6th fret.

I couldnít find a tab for this that sounded exactly right or had the full solo, so I
made it. Listen to the song to find strumming patterns for the chords of each part. And
also in the intro, the 0ís with parenthesis around them are optional. I thought Iíd put
them in there because I play it like that and he does a few times as well.


Intro:
e|-------------------0-----------------------0-------------------0----------------------0-|
B|-------------------0-(0)-------------------0-------------------0-(0)------------------0-|
G|------------2-2h4--0--2/4\2p0-(0)----------0------------2-2h4--0--2/4\2p0-(0)---------0-|
D|----0-2-2h4--------4-----------2/4\2p0-2-0-4----0-2-2h4--------4-----------2/4\2p0-02-4-|
A|--2----------------2-----------------------5--2----------------2----------------------5-|
E|-------------------2-----------------------3-------------------2----------------------3-|


Verse:
e|--0--0--|
B|--0--0--|
G|--0--0--|
D|--4--4--|
A|--2--5--|
E|--2--3--|


Bride/Outro:
e|--0--0--|
B|--0--0--|
G|--0--0--|
D|--4--4--|
A|--2--5--|
E|--0--3--|

And I believe he throws the chord below into the bridge/outro every now and again but
that might just be me.
e|----0----|
B|----0----|
G|----0----|
D|----7----|
A|----9----|
E|----0----|



Solo:
e|----------------------------------------------------------------------------------------|
B|----------------------------------------------------------------------------------------|
G|------2----------2---2h4--7p6-----7p6---------2-4/7p6---------2-2--2--2h4-4-4/7p6-------|
D|--2-4---4--2h4-4---4----------7-4-----7-4\2/4---------7-4-2h4--4--4-4-------------7-----|
A|----------------------------------------------------------------------------------------|
E|----------------------------------------------------------------------------------------|

e|----------------------------------------------------------------------------------------|
B|------------------------------7-7--5---------------------3-2----------------------------|
G|-------7-7\6----------7-6------------7p6-----------2-2h4-----2-------2------------------|
D|--7/9-9-9----7-7/9-9------7/9------------7-4\2-2/4--4----------4p2h4---4----------------|
A|----------------------------------------------------------------------------------------|
E|----------------------------------------------------------------------------------------|


| /  slide up
| \  slide down
| h  hammer-on
| p  pull-off
| ~  vibrato
| +  harmonic
| x  Mute note
Tap to rate this tab
 
# A B C D E F G H I J K L M N O P Q R S T U V W X Y Z