Dalmatian Rex And The Eigentones - Octopus I Love You tab

Band website: http://www.dalmatianrex.co.uk/
This is a really simple and deliciously happy song.
The guitar riffs are always played in conjunction together with appropriate chord.
Chord A* is same as A, just with a different riff.

INTRO: E, E, A, E

D      A*       E
I love you Octopus
D      A*       E
I love you Octopus

E

E
I think its great that you've got eight wobbly arms
E
I can never see you with your crazy camouflage
A
I think your bostin! You are surreal!
E
Better than the fish the sharks and even the conger eel

D      A*       E
I love you Octopus
D      A*       E
I love you Octopus

E

E
I wish I was as rich as the English King and Queen
E
I'd spend my money on a brand new submarine
A
I'd swim with the dolphins, like Jaques Cousteau
E
In the end of the evening we'd have a real big fish disco

D      A*       E
I love you Octopus
D      A*       E
I love you Octopus

Riff E:
e|----------------|
B|----------------|
G|------1---4-1---|
D|-2-2-4-2------4-|
A|----------------|
E|----------------|


Riff A:
e|----------------|
B|----------------|
G|------6---9-6---|
D|-7-7-9-7------9-|
A|----------------|
E|----------------|


Riff D:
e|----------------|
B|----------------|
G|--7-9-11-9-7----|
D|----------------|
A|----------------|
E|----------------|

Riff A*:
e|----------------|
B|----------------|
G|----------------|
D|--7-9-11-9-7----|
A|----------------|
E|----------------|
Tap to rate this tab
 
# A B C D E F G H I J K L M N O P Q R S T U V W X Y Z