Song name
# A B C D E F G H I J K L M N O P Q R S T U V W X Y Z

Dam - Ngayer Bokra tab

Hi here the rap song  Ngayer Bokra
enjoy. :D

Tabbed by: Ariel Golan
Email: arielgo120@gmail.com

Tuning: standart

part 1 introX2

e|--------------------------------------------------------------------------|
B|--------------------------------------------------------------------------|
G|-----0---2/4--------------4\2---0-----------------------------------------|
D|---2--------------------------------4-------------------------------------|
A|-2------------------------------------------------------------------------|
E|--------------------------------------------------------------------------|



e|--------------------------------------------------------------------------|
B|--------------------------------------------------------------------------|
G|-------------2p1h2------------4--0----------------------------------------|
D|-----1---4--------------------------4-2-----------------------------------|
A|---2----------------------------------------------------------------------|
E|--------------------------------------------------------------------------|

part 2
the rest of the song keep going like that


e|----------------7p5h7--------------------------5h3h2----------------------|
B|--------------------------------------------------------------------------|
G|-----0---2/4--------------4\2---0-----------------------------------------|
D|---2--------------------------------4-------------------------------------|
A|-2------------------------------------------------------------------------|
E|--------------------------------------------------------------------------|



e|---------------------5p3p5------------------------------------------------|
B|--------------------------------------------------------------------------|
G|-------------2p1h2------------4--0----------------------------------------|
D|-----1---4--------------------------4-2-----------------------------------|
A|---2----------------------------------------------------------------------|
E|--------------------------------------------------------------------------|

enjoy and good luck
Tap to rate this tab
 
# A B C D E F G H I J K L M N O P Q R S T U V W X Y Z