Song name
# A B C D E F G H I J K L M N O P Q R S T U V W X Y Z

Damaged - Ultramild tab

Help us improve GuitareTab! Take a short survey!
================================================================================
         Title : Ultra-Mild
        Artist : Damaged
         Album : Do not Spit
Transcribed by : By DimeBolt (dime_bolt@email.com)
================================================================================


Tune down 1 1/2 steps (Db,Gb,B,E,Ab,Db)

   Intro
1||-----------------|-----------------|-----------------|-----------------||
2||-----------------|-----------------|-----------------|-----------------||
3||-----------------|-----------------|-----------------|-----------------||
4||-----------------|-----------------|-----------------|-----------------||
5||-2---2---2---2---|-2---2---2---2---|-2---2---2---2---|-2-2-2-2-2-2-2---||
6||-0---0---0---0---|-0---0---0---0---|-0---0---0---0---|-0-0-0-0-0-0-0---||

   Main Riff (fast)
1||-----------------|-----------------|-----------------|-----------------||
2||-----------------|-----------------|-----------------|-----------------||
3||-----------------|-----------------|-----------------|-----------------||
4||-----------------|-----------------|-----------------|-----------------||
5||---6-5---5-6---8-|-6---5-6---5-6-5-|---6-5---5-6---8-|-6---5-6---------||
6||-0-4-3-0-3-4-0-6-|-4-0-3-4-0-3-4-3-|-0-4-3-0-3-4-0-6-|-4-0-3-4---------||
Related for Ultramild tab