Song name
# A B C D E F G H I J K L M N O P Q R S T U V W X Y Z

Damageplan - Fuck You tab

-----------------------------------------------------------------------------
			     Fuck You - Damageplan
-----------------------------------------------------------------------------

Tabbed by: emr_steelmech

PM/comment with suggestions/corrections/etc.

Tuning: Drop A# (Bb F Bb Eb G C)

Intro/Chorus:

Pinch harmonics are actually multiple harmonies at once, but if you hit 'em right 
this sounds close.

|-----------------------------------------------------------------------|
|-----------------------------------------------------------------------|
|-----------------------------------------------------------------------| x4
|-----------------3*-----------------------------3*-----6*--------------|
|-------------2------------------------------2--------------------------|
|--0-----/6-----------------------0-----/6------------------------------|


|------------------------------------|
|------------------------------------|
|------------------------------------|
|--0~~-------------------------------|
|--0~~-------------------------------|
|--0~~-------------------------------|

Verse:

|--------------------------------------------------------------------------|
|--------------------------------------------------------------------------|
|--------------------------------------------------------------------------|
|--------------------------------------------------------------------------|
|--------------------------------------------------------------------------|
|---0-0-6-5-3-0-6-5-3-0-6-5-3-0-6-5-3-0-6-5-3-0-6-5-3-0-6-5-3-0-6-5-3-0----|
    P.M.. . . . . . . . . . . . . . . . . . . . . . . . . . . . . . . . 

|--------------------------------------------------------------------------|
|--------------------------------------------------------------------------|
|--------------------------------------------------------------------------|
|--------------------------------------------------------------------------|
|--------------------------------------------------------------------------|
|---6-5-3-0-6-5-3-0-6-5-3-0-6-5-3-0-6-5-3-0-6-5-3-0-6-5-3-0-3-3------------|
    P.M.. . . . . . . . . . . . . . . . . . . . . . . . . . . .

Pre-chorus

|--------------------------------------------------------------------------|
|---Gtr 1------------------------------------------------------------------|
|--------------------------------------------------------------------------|
|---5---5---5-3-5-3-5---5---5-3-5-3-5---5---5-3-5-3-5~---------------------|
|---5---5---5-3-5-3-5---5---5-3-5-3-5---5---5-3-5-3-5~---------------------|
|---5---5---5-3-5-3-5---5---5-3-5-3-5---5---5-3-5-3-5~---------------------|
|
|--------------------------------------------------------------------------|
|---Gtr 2-------------------------------------------18b~-------------------|
|--------------------------------------------------------------------------|
|--------------------------------------------------------------------------|
|--------------------------------------------------------------------------|
|--------------------------------------------------------------------------|


|--------------------------------------------------------------------------|
|---Gtr 1------------------------------------------------------------------|
|--------------------------------------------------------------------------|
|---5---5---5-3-5-3-5---5---5-3-5-3-3--------2----1------------------------|
|---5---5---5-3-5-3-5---5---5-3-5-3-3--------2----1------------------------|
|---5---5---5-3-5-3-5---5---5-3-5-3-3--------2----1------------------------|

Bridge:

I don't have a whammy bar or pitch pedal and I'm not Dime so cut me some
slack here, but this is my best guess and should get you started.  If you 
have a pitch pedal I feel like you won't need the notes on the 1st string, 
and since you would run off the fretboard unless your guitar has 27 frets 
anyway, I've put them in parentheses.

Riff 1:

|--(17)---------------------------(18)-------------------------------------|
|---15-----------------------------16--------------------------------------|
|---14-----------------------------15--------------------------------------|
|--------------------------------------------------------------------------|
|--------------------------------------------------------------------------|
|---------0---0-0-0---0-0-0-0-0-0--------0---0-0-0---0-0-0-0-0-0-----------|
	  P.M.. . .   . . . . . .        .   . . .   . . . . . . 

|--(20)----------(18)----------(17)-------------------------------------|
|---18------------16------------15--------------------------------------|
|---17------------15------------14--------------------------------------|
|-----------------------------------------------------------------------| x2
|-----------------------------------------------------------------------|
|---------0---0-0-------0---0-0-------0---0-0-0-0-12\-------------------|
	  P.M.. .       .   . .       .   . . . .  

Riff 2:

|--(17)---------------------------(18)-------------------------------------|
|---15-----------------------------16--------------------------------------|
|---14-----------------------------15--------------------------------------|
|--------------------------------------------------------------------------|
|--------------------------------------------------------------------------|
|---------0---0-0-0-0-12\----------------0---0-0-0-0-12\-------------------|
	  P.M.. . . .			 P.M.. . . .

|--(20)---------------------------(21)-------------------------------------|
|---18-----------------------------19--------------------------------------|
|---17-----------------------------18--------------------------------------|
|--------------------------------------------------------------------------|
|--------------------------------------------------------------------------|
|---------0---0-0-0-0-12\----------------0---0-0-0-0-12\-------------------|
	  P.M.. . . .			 P.M.. . . .

|--(22)---------------------------(24)-------------------------------------|
|---20-----------------------------22--------------------------------------|
|---19-----------------------------21--------------------------------------|
|--------------------------------------------------------------------------|
|--------------------------------------------------------------------------|
|---------0---0-0-0-0-12\----------------0---0-0-0-0-12\-------------------|
	  P.M.. . . .			 P.M.. . . .

|--(25)---------------------------(26)b~-----------------------------------|
|---23-----------------------------24b~------------------------------------|
|---22-----------------------------23b~------------------------------------|
|--------------------------------------------------------------------------|
|--------------------------------------------------------------------------|
|---------0---0-0-0-0-12\--------------------------------------------------|
	  P.M.. . . .			 

Solo:

Out of respect for Dime I'm not going to attempt to butcher his solo because
I don't have the time to do it right, so here's the rhythm between each
shredding part:

|-------------(26)b~----------------------------------------------------|
|--------------24b~-----------------------------------------------------|
|--------------23b~-----------------------------------------------------| x4
|-----------------------------------------------------------------------|
|-----------------------------------------------------------------------|
|--0---0-0-0------------------------------------------------------------|
   P.M.. . . 

Play Bridge Riff 1 again, then:

|--------------------------------------------------------------------------|
|--------------------------------------------------------------------------|
|--------------------------------------------------------------------------|
|--------------------------------------------------0~~--------x\---pick----|
|--------------------------------------------------0~~--------x\---slide---|
|--------------------------------------------------0~~--------x\-----------|

Play Pre-chorus once, then:

Outro:

|--------------------------------------------------------------------------|
|--------------------------------------------------------------------------|
|--------------------------------------------------------------------------|
|-----------------3*-----------------------------3*-----6*-----------------|
|-------------2------------------------------2-----------------------------|
|--0-----/6-----------------------0-----/6---------------------------------|

|--------------------------------------------------------------------------|
|-----------------------------------------------------16~------------------|
|-----------------------------------------------------15~------------------|
|-----------------3*-------------------------------------------------------|
|-------------2------------------------------------------------------------|
|--0-----/6------------------------6-6--5-5--3-3--3-1----------------------|
				   P.M. . .  . .  . .  

|--------------------------------------------------------------------------|
|--------------------------------------------------------------------------|
|--------------------------------------------------------------------------|
|-----------------3*-----------------------------3*-----6*-----------------|
|-------------2------------------------------2-----------------------------|
|--0-----/6-----------------------0-----/6---------------------------------|

|--------------------------------------------------------------------------|
|--------------------------------------------------------------------------|
|--------------------------------------------------------------------------|
|-----------------3*----------------------------------------0--------------|
|-------------2---------------------------------------------0--------------|
|--0-----/6-----------------------6-5--5--3--3--2-2--1--1-1-0--------------|
				  P.M. .  .  .  . .  .  . .


And there you go, Fuck You.  I mean the song title.


************************************

| /   slide up
| \   slide down
| h   hammer-on
| p   pull-off
| ~   vibrato/ let ring
| +   harmonic
| *   artificial harmonic
| x   Mute note
| b   Bend
| pb  Pre-bend
| br  Bend release
| pbr Pre-bend release
| brb Bend release bend

************************************
Tap to rate this tab
 
# A B C D E F G H I J K L M N O P Q R S T U V W X Y Z