Guitaretab - guitar tabs
Song name
# A B C D E F G H I J K L M N O P Q R S T U V W X Y Z

Damageplan - Breathing New Life tab

Damageplan
Breathing New Life

I'm tabbing this song because it's the last song that Dime ever played.So it's for you Dimebag.

Legend
h - hammer-on
p - pull-off
b - bend
/\- slide into or out of
s - slide
~ - vibrato
PM- palm muting

INTRO
C#-----------------------------------------------------------|
G#-----------------------------------------------------------|
E -----------------------------------------------------------|   Play this
B -----------------------------------------------------0-1---|   two times.
F#---3-4-1-2-0-1---3-4-1-2-0-1---3-4-1-2-0-1---3-4-1-2-0-1---|
B ---3-4-1-2-0-1---3-4-1-2-0-1---3-4-1-2-0-1---3-4-1-2-------|

BUILDUP
C#-----------------     C#------------------------|
G#-----------------     G#------------------------|
E ----------3~~~---     E ----------3~---3/6~~~---|       These two
B -----------------     B -------------5----------|         twice.
F#-----------------     F#------------------------|
B --0---2-3--------     B --0---2-3---------------|

VERSE
C#-----------------------------------|
G#-----------------------------------|
E ----------------------------3~~~---|
B ----------------------------3~~~---|
F#----------------------0-2-3--------|
B -0-0-0-0-0-0-0-0-12\--0-2-3--------|
PM - - - - - - - -
                                              Both twice.
C#-----------------------------------------|
G#-----------------------------------------|
E ----------------------------3-----6~~~---|
B ----------------------------3-----6~~~---|
F#----------------------0-2-3---3/6--------|
B -0-0-0-0-0-0-0-0-12\--0-2-3---3/6--------|
PM - - - - - - - -

PRE-CHORUS
C#----------------------------------------|
G#----------------------------------------|
E ----------------------------------------|
B ----------------------------------------|
F#-7-7---5--------------------------------|
B -7-7-7---7-6--6-6-6-6-6-6-6-6-6-6-6-6---|

C#---------------------------|
G#---------------------------|
E ---------------------------|
B ---------------------------|
F#-7-7-7-7---5---------------|
B -7-7-7-7-7---7-6-3-0-3-0---|

C#----------------------------------------|
G#----------------------------------------|
E ----------------------------------------|
B ----------------------------------------|
F#-7-7---5--------------------------------|
B -7-7-7---7-6--6-6-6-6-6-6-6-6-6-6-6-6---|

C#-----------------|
G#-----------------|
E -----------------|
B -----------------|
F#-7-7-7-7---5-----|
B -7-7-7-7-7---7---|

CHORUS
C#-----------------------------------------------------------|
G#-----------------------------------------------------------|
E -----------------------------------------------------------|
B -----------------------------------------------------0-1---|
F#---3-4-1-2-0-1---3-4-1-2-0-1---3-4-1-2-0-1---3-4-1-2-0-1---|
B ---3-4-1-2-0-1---3-4-1-2-0-1---3-4-1-2-0-1---3-4-1-2-------|

BUILDUP
VERSE
PRE-CHORUS
CHORUS 2x

INTERLUDE
C#------24~~~~~~------24~~~-19~~~---|
G#----------------------------------|
E ----------------------------------|   Play it twice.
B ----------------------------------|
F#--0--------------0----------------|
B --0--------------0----------------|
[ Tab from: http://www.guitaretab.com/d/damageplan/48149.html ]
SOLO
C#------------------------------------------------------------|
G#------------------------------------------------------------|
E ----------12b-----12b-------12b-------12b-------------------|
B -12-14--------14------14--------14--------14----------------|
F#-------14----------------14--------13--------12--10h12p10---|
B ------------------------------------------------------------|
                     ___3____
C#----------___3____----18-----20b----------------------------|
G#----------------17-------17---------------------------------|
E -___3____-15-------15----------------------12b----12b-------|
B ----14-------14-------------------12-14--------14-----14----|
F#-------13-------------------------------14---------------14-|
B -12---------------------------------------------------------|

C#---------------------------------|
G#---------------------------------|
E -12b-------12b-------------------|
B -----14--------14----------------|
F#--------13--------12--10h12p10---|
B ---------------------------------|

C#-------------------------------------------------------------18-19-18-19-|
G#-------------------------------------------------17-18-17-18-------------|
E -------------------------------------16-17-16-17-------------------------|
B -------------------------14-15-14-15-------------------------------------|
F#-------------13-14-13-14-------------------------------------------------|
B -12-13-12-13-------------------------------------------------------------|
PM -- -- -- -- -- --
   ________6________ ________6________
C#-22-22-22-22-19-18-22-22-22-22-19-18---|
G#---------------------------------------|
E ---------------------------------------|
B ---------------------------------------|
F#---------------------------------------|
B ---------------------------------------|

BREAKDOWN
C#---------------------------------------------|
G#---------------------------------------------|
E ---------------------------------------------|
B ---------------------------------------------|
F#---------------------------------------------|
B -/15\---/15\---/15\---/15\---/15s---8s---1---|

C#----------------------------------------------------------|
G#----------------------------------------------------------|
E---------------3---3---3--------------------3--------------|
B---------------3---3---3--------------------3--------------|
F#-0-------3----------------0-0-0-0-0-----3----3/6--6-6-6---|
B -0---0-2-3--3---3---3-----0-0-0-0-0-0-2-3----3/6--6-6-6---|
                         PM   - - - -
C#----------------------------------------------------------|
G#----------------------------------------------------------|
E---------------3---3---3--------------------3--------------|
B---------------3---3---3--------------------3--------------|
F#-0-------3----------------0-0-0-0-0-----3----3/6--6-6-6---|
B -0---0-2-3--3---3---3-----0-0-0-0-0-0-2-3----3/6--6-6-6---|
                         PM   - - - -
OUTRO
C#-----------------------------------------------------------|
G#-----------------------------------------------------------|
E -----------------------------------------------------------|   Play this
B -----------------------------------------------------0-1---|   four times.
F#---3-4-1-2-0-1---3-4-1-2-0-1---3-4-1-2-0-1---3-4-1-2-0-1---|
B ---3-4-1-2-0-1---3-4-1-2-0-1---3-4-1-2-0-1---3-4-1-2-------|

C#-----------------------------|
G#-----------------------------|
E -----------------------------|
B ----0--1-----0--1-----0--1---|
F#-2--0--1--2--0--1--2--0--1---|
B -2--------2--------2---------|

Hope it's correct.
Enjoy.
Related for Breathing New Life tab
Advertisement will be closed in 10 seconds