Guitaretab - guitar tabs
Song name
# A B C D E F G H I J K L M N O P Q R S T U V W X Y Z

Damas Gratis - La Danza De Los Mirlos tab

DAMAS GRATIS - DANZA DE LOS MIRLOS

LA VERDAD NO ME GUSTA LA CUMBIA...PERO ES FACIL DE TOCAR...Y LA SAQUE HACE BASTANTE TIEMPO,
EN UN PASADO MUUUY LEJANO...CUANDO ME GUSTABA LA CUMBIA..JEJ:P

INTRO
------------------------|
------------------------|
----------0-2-2-2-2-2---|  x4
-0-0-0-0-3---------2----|
------------------------|
------------------------|


---------------------|
---------------------|
----0-1-1-1-2-0------|  x2
-0-3---------2-0-3---|
---------------------|
---------------------|

[ Tab from: http://www.guitaretab.com/d/damas-gratis/56062.html ]
-----------------------------|
-----------------------------|
----0-1-2-3-2-1-0-0----------|  x3
-0-3-------------3-3-2-0-3---|
-----------------------------|
-----------------------------|


--------------------------|
--------------------------|
----0-1-2-3-2-1-0-0-------|
-0-3-------------3-3-2-0--|
--------------------------|
--------------------------|

HOLAS, SOY DE BS AS ARGENTINA...
ES LA PRIMERA VEZ Q ESCRIBO UN TAB...
NO TENIA GANAS DE ESCRIBIR EL ESTRIBILLO, ES UN QUILOMBO ESCRIBIR TABS!!!! BUENO,
PARA CUALQUIER TAB, DE CUALQUIER GENERO MUSICAL, PEEDIMELA...JEJ, SOY lea123_carp@hotmail.com
HOY ENERO DEL 2005 TENGO 15 AŅITOS..PARA LAS CHICAS LINDAS AGREGUENME EN EL MSN...O ESCRIBANME...
CHAUU
Related for La Danza De Los Mirlos tab
×
La Danza De Los Mirlos