Guitaretab - guitar tabs
Song name
# A B C D E F G H I J K L M N O P Q R S T U V W X Y Z

Damascus - Steriotype Liar tab

                  "Steriotype liar" BY:DAMASCUS              rythm guitar

beginning
E]----------------------------------------------]
B]----------------------------------------------]
G]----------------------------------------------]
D]----------------------------------------------]
A]--7----------5--5-5-5r--5-5----7--------------]x2
E]-----6--5p------------------------6v----------]

verse x4
E]----------------------------------------------]
B]----------------------------------------------]
G]----------------------------------------------]
D]----------------------------------------------]
A]-0-0-0-0-0-0-0-0-0-0-0-1-1-1-1-1-1-1-1-1-1-1-1]
E]----------------------------------------------]
[ Tab from: http://www.guitaretab.com/d/damascus/111695.html ]
E]----------------------------------------------]
B]----------------------------------------------]
G]----------------------------------------------]
D]----------------------------------------------]
A]-2-2-2-2-2-2-2-2-2-2-2-2-3-3-3-3-3-3-3-3-3-3-3]back to verse
E]----------------------------------------------]

chorus x2 and then x2 during the solo
E]---------------------------------------------------]
B]-------3-----------3-----------3-------------3-----]
G]-----2---2-------2---2-------2---2---------2---2---]
D]---3-------3---3-------3---0-------0-----3-------3-]
A]-5-----------4-----------3-------------2-----------]
E]---------------------------------------------------]

E]-----------------------------------------------------]
B]-------3-----------3----------2-2-2--3-3-3---5-5-5-5-]
G]-----2---2-------2---2-------------------------------]
D]---3-------3---3-------3------2-2-2--3-3-3---5-5-5-5r]
A]-1-----------1---------------------------------------]
E]-----------------------------------------------------]

distortion part.
E]-------------------------------------]
B]-------------------------------------]
G]--7-7-0---------5-0---5/6--5---------]
D]--7-7-0---3-----5-0---5/6--5---------]
A]--5-5-0---3-----3-0---3/4--3---------]
E]----------1--0-----------------------]x11



DAMASCUS ROCKS!!!
Advertisement will be closed in 10 seconds