Song name
# A B C D E F G H I J K L M N O P Q R S T U V W X Y Z

Damien Jurado - What Were The Chances tab

"What Were The Chances" by Damien Jurado

Standard Tuning/Capo 4

There are only two parts to this song, however you might hear something different 
and want to pick in your own way. 
Here are two different ways I think sound fine for the verses:

e ------------------------------------------------------------|
B ------------------------------------------------------------|
G -------------------0------------------------------0---------|
D ---2-----0-----0------0---------2------0------0------0------|
A ------3-----3-----------------------3------3----------------|
E -3----------------------------1-----------------------------|

OR

e -------------------------------------------------------------|
B -------------------------------------------------------------|
G ---------------0------------------------------0--------------|
D ---2-----0--------0-------------2-------0---------0----------|
A ------3-----3---------3-------------3------3----------3------|
E -3----------------------------1------------------------------|


Again, for the choruses you can do what you'd like. You might want to just strum 
the chords but here is how I like to play it.

e -x--------------------------------x----------------------------|
B -0~---0-------0------0-----------0~----0------0------0---------|
G -2~-----2-------2------2---------5~------5------5------5-------|
D -3~------------------------------5~--5------5------5------5----|
A -0~------------------------------0~----------------------------|
E -1~--1------1------1-------1-----0~----------------------------|

Thats the whole song. Feel free to mess around with the picking patterns but those 
are the main chord structures.
Tap to rate this tab
# A B C D E F G H I J K L M N O P Q R S T U V W X Y Z