Song name
# A B C D E F G H I J K L M N O P Q R S T U V W X Y Z

Damien Jurado - Sheets tab

Capo 6th Fret
Standard Tuning

In verse 1, the 0h2 hammer on isn't played, but I leave it in because it sounds nice. In 
the song, the last part of the main riff (namely the middle of the F chord) is 
strummed. Listen to the song for correct timing.

[Main Riff]
e|-----------------------------------------------------------------------|
B|------1-------1-----1------0----0------0------0-------0----------------|
G|----2-----2-0-----0------0----0------0------2-------2------------------|
D|------------2-----2---0h2-0---0-----00-----33------33------------------|
A|--0-----0---3---3------------------------------------------------------|
E|----------------------------3-----3------1-------1---------------------|

e|-----------------------------------------------------------------------|
B|------1-------1-----1------0----0------0------0-------0------0------0--|
G|----2-----2-0-----0------0----0------0------2-------2------2------2----|
D|------------2-----2---0h2-0---0-----00-----33------33-----33-----33----|
A|--0-----0---3---3------------------------------------------------------|
E|----------------------------3-----3------1-------1------1------1-------|

[Verse 1]
e|-----------------------------------------------------------------------|
B|------1-------1-----1------0----0------0------0-------0----------------|
G|----2-----2-0-----0------0----0------0------2-------2------------------|
D|------------2-----2---0h2-0---0-----00-----33------33------------------|
A|--0-----0---3---3------------------------------------------------------|
E|----------------------------3-----3------1-------1---------------------| x4

Is he still coming around like an injured bird, needing a nest
A place to rest his head in a song youíll regret
Still you take him, Lord knows I donít want to compete
But I still sleep

e|-----------------------------------------------------------------------|
B|------1-------1-----1------0----0------0------0-------0------0------0--|
G|----2-----2-0-----0------0----0------0------2-------2------2------2----|
D|------------2-----2---0h2-0---0-----00-----33------33-----33-----33----|
A|--0-----0---3---3------------------------------------------------------|
E|----------------------------3-----3------1-------1------1------1-------|

in the very sheets he's been in

[Verse 2]
e|-----------------------------------------------------------------------|
B|------1-------1-----1------0----0------0------0-------0----------------|
G|----2-----2-0-----0------0----0------0------2-------2------------------|
D|------------2-----2---0h2-0---0-----00-----33------33------------------|
A|--0-----0---3---3------------------------------------------------------|
E|----------------------------3-----3------1-------1---------------------| x2

Swallow him whole like a pill that makes you choke and stills your soul
You have the nerve to look me in the eyes and lie

e|-----------------------------------------------------------------------|
B|------1-------1-----1------0----0------0------0-------0------0------0--|
G|----2-----2-0-----0------0----0------0------2-------2------2------2----|
D|------------2-----2---0h2-0---0-----00-----33------33-----33-----33----|
A|--0-----0---3---3------------------------------------------------------|
E|----------------------------3-----3------1-------1------1------1-------|

Send him back, I'll share the trap that you have me in


Here is the mini solo for the electric guitar; not going to bother tabbing out the power 
chords, thatí should be easy enough for yall to do

e|-----------------------------------------------------------------------|
B|-----------------------------------------------------------------------|
G|-----------------------------------------------------------------------|
D|--8-8/5----------------------------------------------------------------|
A|--------9-11-11-9------------------------------------------------------|
E|-----------------------------------------------------------------------|
Tap to rate this tab
# A B C D E F G H I J K L M N O P Q R S T U V W X Y Z