Song name
# A B C D E F G H I J K L M N O P Q R S T U V W X Y Z

Damien Rice - Volcano tab

VOLCANO

by Damien Rice
written by Damien Rice
from the album ‘O’


    Am                                                         (G)
E-|-----5---------------5-----------|-----5---------------5-----3-----|
B-|-----5---------------5-----------|-----5---------------5-----3-----|
G-|-----5---------------5-----------|-----5---------------5-----4-----|
D-|-7---7---------5-7---7---------5-|-7---7---------5-7---7-----5-----|
A-|-7---7---------7-7---7---------7-|-7---7---------7-7---7-----5-----|
E-|-5---5----—----5-5---5---------5-|-5---5---------5-5---5-----3---0-|
    1   +   2   +   3   +   4   +   | 1   +   2   +   3   +   4   +   |


    Fmaj7                                                      (G)
E-|-----0---------------0-----------|-----0---------------0-----3-----|
B-|-----1---------------1-----------|-----1---------------1-----3-----|
G-|-----2---------0-2---2---------0-|-2---2---------0-2---2-----4-----|
D-|-3---3---------3-3---3---------3-|-0---3---------3-3---3-----5-----|
A-|-3---3---------3-3---3---------3-|-0---3---------3-3---3-----5-----|
E-|-1--------—----------------------|---------------------------3-----|
    1   +   2   +   3   +   4   +   | 1   +   2   +   3   +   4   +   |


    Am                                                         (G)
E-|-----5---------------5-----------|-----5---------------5-----3-----|
B-|-----5---------------5-----------|-----5---------------5-----3-----|
G-|-----5---------------5-----------|-----5---------------5-----4-----|
D-|-7---7---------5-7---7---------5-|-7---7---------5-7---7-----5-----|
A-|-7---7---------7-7---7---------7-|-7---7---------7-7---7-----5-----|
E-|-5---5----—----5-5---5---------5-|-5---5---------5-5---5-----3---0-|
    1   +   2   +   3   +   4   +   | 1   +   2   +   3   +   4   +   |


    Fmaj7                                                      (G)
E-|-----0---------------0-----------|-----0---------------0-----3-----|
B-|-----1---------------1-----------|-----1---------------1-----3-----|
G-|-----2---------0-2---2---------0-|-2---2---------0-2---2-----4-----|
D-|-3---3---------3-3---3---------3-|-0---3---------3-3---3-----5-----|
A-|-3---3---------3-3---3---------3-|-0---3---------3-3---3-----5-----|
E-|-1--------—----------------------|---------------------------3-----|
    1   +   2   +   3   +   4   +   | 1   +   2   +   3   +   4   +   |


(repeat pattern over)

    Am                                                          (G)
E-|-----5----------------5-----------|-----5---------------5-----3-----|
B-|-----5----------------5-----------|-----5---------------5-----3-----|
G-|-----5----------------5-----------|-----5---------------5-----4-----|
D-|-7---7---------5-7----7---------5-|-7---7---------5-7---7-----5-----|
A-|-7---7---------7-7----7---------7-|-7---7---------7-7---7-----5-----|
E-|-5---5----—----5-5----5---------5-|-5---5---------5-5---5-----3---0-|
    1   +   2   +   3    +   4   +   | 1   +    2  +   3   +   4   +   |
            Don’t   hold your----self      like that

 
    Fmaj7                                                         (G)
E-|-----0------------------0-----------|-----0---------------0-----3-----|
B-|-----1------------------1-----------|-----1---------------1-----3-----|
G-|-----2-----------0--2---2---------0-|-2---2---------0-2---2-----4-----|
D-|-3---3-----------3--3---3---------3-|-0---3---------3-3---3-----5-----|
A-|-3---3-----------3--3---3---------3-|-0---3---------3-3---3-----5-----|
E-|-1--------—-------------------------|---------------------------3-----|
    1   +   2   +      3   +  4    +   | 1   +   2   +   3   +   4   +   |
                You'll hurt   your knees


    Am                                                            (G)
E-|-----5------------------5-----------|-----5---------------5-----3-----|
B-|-----5------------------5-----------|-----5---------------5-----3-----|
G-|-----5------------------5-----------|-----5---------------5-----4-----|
D-|-7---7---------5-7------7---------5-|-7---7---------5-7---7-----5-----|
A-|-7---7---------7-7------7---------7-|-7---7---------7-7---7-----5-----|
E-|-5---5----—----5-5------5---------5-|-5---5---------5-5---5-----3---0-|
    1   +   2   +   3      +   4   +   | 1   +    2  +   3   +   4   +   |
            I       kissed your    mouth     and  back


    Fmaj7 
E-|-----0------------------0-----------|---------------0-----------------|
B-|-----1------------------1-----------|-------------1-1-----------------|
G-|-----2-----------0--2---2---------0-|-2---2---0-2---2---0-0---0-2-----|
D-|-3---3-----------3--3---3---------3-|-0---3---------3---3-3---3-3-----|
A-|-3---3-----------3--3---3---------3-|-0---3---------------------------|
E-|-1--------—-------------------------|---------------------------------|
    1   +   2   +      3   +  4    +   | 1   +   2   +   3   +   4   +   |
                That's all    I    need


G                  Fmaj7
  Don't build your world around
G           Fmaj7
  Volcanoes melt you down


(continue pattern over)


           Am
And what I am to you
       Fmaj7
Is not real
           Am
And what I am to you
           Fmaj7
You do not need
           Am
And what I am to you
                Fmaj7
Is not what you mean to me
            Am
You give me miles and miles of mountains
    Fmaj7         Am (to intro)
And I ask for the sea

 
Don't throw yourself like that
In front of me
I kissed your mouth your back
Is that all you need
Don't drag my love around
Volcanoes melt me down

And what I am to you
Is not real
And what I am to you
You do not need
And what I am to you
Is not what you mean to me
You give me miles and miles of mountains
And I ask...


       C
What I give to you
                 E
Is just what I'm going through
        Am
This is nothing new
              Fmaj7
No, no, just another phase of finding 
       C
What I really need
        E
Is what makes me bleed
       Am
Like a new disease
               Fmaj7
But lord she's still too young to treat


       Am
What I am to you                   is not real
               (She's still too young,               she’s still too)
             Vol------can---oes           melt you down
       Fmaj7
What I am to you                   is not real
(young,         she's still too young,               she’s still too)
             Vol------can---oes           melt you down
       Am
What I am to you                   is not real
               (She's still too young,               she’s still too)
             Vol------can---oes           melt you down
       Fmaj7
What I am to you                   is not real
(young,         she's still too young,               she’s still too)
             Vol------can---oes           melt you down
       Am
What I am to you                   is not real
               (She's still too young,               she’s still too)
             Vol------can---oes           melt you down
       Fmaj7
What I am to you                   is not real
(young,         she's still too young,               she’s still too)
             Vol------can---oes           melt you down
       Am
What I am to you                   is not real
               (She's still too young,               she’s still too)
             I        kiss    your        mouth
       Fmaj7
What I am to you                   is not real
(young,         she's still too young,               she’s still too)
             I        kiss    your        mouth
       Am
What I am to you                   is not real
               (She's still too young,               she’s still too)
             I        kiss    your        mouth
       Fmaj7
What I am to you                   is not real
(young,         she's still too young,               she’s still too)
             I        kiss    your        mouth


(N.C.)
You do not need me
Tap to rate this tab
 
# A B C D E F G H I J K L M N O P Q R S T U V W X Y Z