Song name
# A B C D E F G H I J K L M N O P Q R S T U V W X Y Z

Damien Rice - When Doves Cry tab

Highlighted       Show chord diagrams
Damien Rice
When Doves Cry

Intro

     Am             C9            G
E-----------0------------------------------------------------------/
B---------1---1--------------------------2-------------------------/
G------2--------2----------------------------0--------------0------/
D----2------------2-----0h2p0---------------------0---------0------/
A--0----------------3-------------2---------------------3----------/
E--------------------------------------3-----------------1---------/

  C                  C9                  G
E---------3-----------------------------------------------------/
B0h1--------(1)------1-------3-----3------3------3----3----3---/
G-----------------(0)-------------0-------------0---------0-----/
D----------------------------------------------------0----------/
A--------------------------3-------------2----------------------/
E----------------------------------------3----------------------/

Am                  C9                G
Take if you will a picture of you and I engaged in a kiss.
     Am                 C9                      G
The sweat of your body covers me.  Can you my darling,
 G
Can you picture this?

Dream if you can a courtyard:  Oceans and violets in bloom.
Animals strike curious poses.  They feel the heat,
The heat between me and you.

Touch if you will my stomach.  Feel how it trembles inside.
Youve got the butterflies all tied up.  Dont make me chase you
Cause even doves have pride.

How can you just leave me standing; alone in the world so cold.
Maybe Im just too demanding.  Maybe Im just like my father,
Too cold.  Maybe Im just like my mother.  Shes never satisfied.
            Am               C9
Never satisfied with each other.

G                                                                           This is what 
sounds like when the doves cry.
Am  C9    G          Am  C9         
                     Am
Dont cry.  Dont cry.....Dont cry.  Dont cry.  Dont cry.
C9      G             Am     C9    G        
            Am       C9  G
Dont cry.  Cause baby, baby, baby, baby, Im gonna leave you.
                                        Am     C9      G
I aint your kin women.  Ive got you rambled.
Am                               C9     G
Ill Leave you when the summer comes.
Leave you when the summer comes along.

Bridge:
Am, Am, Am, C9*, Dm, Dm, 
Dm (several times)
C9, C9, G, G, Am, Am

 Am                    C9       G         Am
Cause, babe, babe, babe, baby, babe, Im gonna leave.
Am                  C9                G
Take if you will a picture of you and I engaged in a kiss.
     Am                  C9                    G
The sweat of your body covers me.  Can you my darling,
  G
Can you picture this?

Am-x022100
C9-x32030
C9*-xxx030
G-320033
Dm-xx0231

Youll have to listen to the song for the picking patterns, and he may be using 
variations of the chords at times.  Im kind of new to tabbing out songs so dont necessarily 
this at face value.

Matthew Schliesser
Tap to rate this tab
# A B C D E F G H I J K L M N O P Q R S T U V W X Y Z