Guitaretab - guitar tabs
Song name
# A B C D E F G H I J K L M N O P Q R S T U V W X Y Z

Damien Rice - When Doves Cry tab

Highlighted       Show chord diagrams
Damien Rice
When Doves Cry

Intro

     Am             C9            G
E-----------0------------------------------------------------------/
B---------1---1--------------------------2-------------------------/
G------2--------2----------------------------0--------------0------/
D----2------------2-----0h2p0---------------------0---------0------/
A--0----------------3-------------2---------------------3----------/
E--------------------------------------3-----------------1---------/

  C                  C9                  G
E---------3-----------------------------------------------------/
Bó0h1--------(1)------1-------3-----3------3------3----3----3---/
G-----------------(0)-------------0-------------0---------0-----/
D----------------------------------------------------0----------/
A--------------------------3-------------2----------------------/
E----------------------------------------3----------------------/

Am                  C9                G
Take if you will a picture of you and I engaged in a kiss.
     Am                 C9                      G
The sweat of your body covers me.  Can you my darling,
 G
Can you picture this?

Dream if you can a courtyard:  Oceans and violets in bloom.
Animals strike curious poses.  They feel the heat,
The heat between me and you.

Touch if you will my stomach.  Feel how it trembles inside.
Youíve got the butterflies all tied up.  Donít make me chase you
ĎCause even doves have pride.
[ Tab from: http://www.guitaretab.com/d/damien-rice/148211.html ]
How can you just leave me standing; alone in the world so cold.
Maybe Iím just too demanding.  Maybe Iím just like my father,
Too cold.  Maybe Iím just like my mother.  Sheís never satisfied.
            Am               C9
Never satisfied with each other.

G                                                                           This is what 
sounds like when the doves cry.
Am  C9    G          Am  C9         
                     Am
ÖÖÖDonít cry.  Donít cry.....Donít cry.  Donít cry.  Donít cry.
C9      G             Am     C9    G        
            Am       C9  G
ÖÖÖDonít cry.  ĎCause baby, baby, baby, baby, Iím gonna leave you.
                                        Am     C9      G
I ainít your kin women.  Iíve got you rambled.
Am                               C9     G
Iíll Leave you when the summer comes.
Leave you when the summer comes along.

Bridge:
Am, Am, Am, C9*, Dm, Dm, 
Dm (several times)
C9, C9, G, G, Am, Am

 Am                    C9       G         Am
Cause, babe, babe, babe, baby, babe, Iím gonna leave.
Am                  C9                G
Take if you will a picture of you and I engaged in a kiss.
     Am                  C9                    G
The sweat of your body covers me.  Can you my darling,
  G
Can you picture this?

Am-x022100
C9-x32030
C9*-xxx030
G-320033
Dm-xx0231

Youíll have to listen to the song for the picking patterns, and he may be using 
variations of the chords at times.  Iím kind of new to tabbing out songs so donít necessarily 
this at face value.

Matthew Schliesser
Related for When Doves Cry tab