Song name
# A B C D E F G H I J K L M N O P Q R S T U V W X Y Z

Damien Rice - Delicate tab

-------------------------------------------------------------------------------
			     DELICATE  Damien Rice
-------------------------------------------------------------------------------

Tuning: Standard, capo 5th fret

Chords (For Chorus):
Fmaj7  xx3210
C  x32010
G13 - 32301x


INTRO:
e|-----------------------|-------------------------|
B|-----------1-----1-----|-------------------------|
G|-------0h2---0h2---0---|-0------------0-----0----| x3
D|---------------------0-|-0h2------0h2---0h2---0--|
A|-----------------------|-3-----------------------|
E|-1---------------------|-------------------------|

e|-----------------------|-------------------------|
B|-----------------------|----------1-1-1-1---1----|
G|------0----0--0---0--0-|-0--------0-0-0-0---0----|
D|-0----0h2--2--2---2--2-|-0--------0-0-0-0---0----|
A|-2----2----2--2---2--2-|-2------------------3----|
E|-3----3----3--3---3--3-|-3-----------------------|


VERSE:
e|-----------------------|-------------------------|
B|-----------1-----1-----|-------1------1-----1----|
G|-------0h2---0h2---0---|-0-----0------0-----0----| x3
D|-3-------------------0-|-0h2------0h2---0h2---0--|
A|-----------------------|-3-----------------------|
E|-1---------------------|-------------------------|
                 We might kiss
             When we are alone
              If nobody's watching,        we might

e|---------------0---0-0-|-------------------------|
B|---------1-1-1-0h1-1-1-|-0----0-0-----0-----0----|
G|-0-------0-0-0-0---0-0-|-0----0-0-----0-----0----|
D|-0---------------------|--------0h2-2-0h2-2-0----|
A|-2---------------------|-------------------------|
E|-3---------------------|-------------------------|
  Take it home

e|-----------------------|-------------------------|
B|-----------1-----1-----|-------1------1-----1----|
G|-------0h2---0h2---0---|-0-----0------0-----0----| x3
D|-3-------------------0-|-0h2------0h2---0h2---0--|
A|-----------------------|-3-----------------------|
E|-1---------------------|-------------------------|
                 We might make out
            When nobody's there
      It's not that we're scared, it's just that it's

e|---------------0---0-0-|------0-0-0-0-0-0-0-0-0--|
B|---------1-1-1-0h1-1-1-|-0----0-0-0-0-0-0-0-1-1--|
G|-0-------0-0-0-0---0-0-|-0----0-0-0-0-0-0-0-0-0--|
D|-0---------------------|--------------------0-0--|
A|-2---------------------|-------------------------|
E|-3---------------------|-------------------------|
  Delicate                             So why'd you


CHORUS: (Chords are guitar, notes are cello)

  Fmaj7                        C
e|-------------|--------------|-------------|--------------|
B|-3-----1-----|--------------|-3-----1-----|--------------|
G|-------------|-2-----0------|-------------|-2-----0------|
D|-3-----2-----|-------2------|-3-----2-----|-------2------|
A|-------------|-3------------|-------------|-3------------|
E|-------------|--------------|-------------|--------------|
  Fill   my     sorrow with the words you    borrowed from the

  Fmaj7                        C
e|-------------|--------------|-------------|--------------|
B|-3-----1-----|--------------|-------------|-------1------|
G|-------------|-2-----0------|-------0-----|-2------------|
D|-3-----2-----|--------------|-2-----------|-0-----2------|
A|-------------|-2-----3------|-5-----3-----|--------------|
E|-------------|--------------|-------------|--------------|
   only         place you've   known             and why'd you

  Fmaj7                        C
e|-------------|--------------|-------------|--------------|
B|-3-----1-----|--------------|-3-----1-----|--------------|
G|-------------|-2-----0------|-------------|-2-----0------|
D|-3-----2-----|-------2------|-3-----2-----|-------2------|
A|-------------|-3------------|-------------|-3------------|
E|-------------|--------------|-------------|--------------|
  sing   hallelujah    if it means  nothing to ya     Why'd you
 
  Fmaj7                        G13
e|-------------|--------------|-------------|--------------|
B|-------------|--------------|-------------|--------------|
G|-0-----------|--------------|-------------|--------------|
D|-3-----------|--------------|-------------|--------------|
A|-------------|--------------|-------------|--------------|
E|-------------|--------------|-------------|--------------|
  sing  with    me    at      all


VERSE:
e|-----------------------|-------------------------|
B|-----------1-----1-----|-------1------1-----1----|
G|-------0h2---0h2---0---|-0-----0------0-----0----| x3
D|-3-------------------0-|-0h2------0h2---0h2---0--|
A|-----------------------|-3-----------------------|
E|-1---------------------|-------------------------|
                 We might live
             Like never before   
 When there's nothing to give,           how can we

e|---------------0---0-0-|-------------------------|
B|---------1-1-1-0h1-1-1-|-0----0-0-----0-----0----|
G|-0-------0-0-0-0---0-0-|-0----0-0-----0-----0----|
D|-0---------------------|--------0h2-2-0h2-2-0----|
A|-2---------------------|-------------------------|
E|-3---------------------|-------------------------|
  Ask for more

e|-----------------------|-------------------------|
B|-----------1-----1-----|-------1------1-----1----|
G|-------0h2---0h2---0---|-0-----0------0-----0----| x3
D|-3-------------------0-|-0h2------0h2---0h2---0--|
A|-----------------------|-3-----------------------|
E|-1---------------------|-------------------------|
                 We might make love
           In some sacred place
         The look on your face                   is

e|---------------0---0-0-|------0-0-0-0-0-0-0-0-0--|
B|---------1-1-1-0h1-1-1-|-0----0-0-0-0-0-0-0-1-1--|
G|-0-------0-0-0-0---0-0-|-0----0-0-0-0-0-0-0-0-0--|
D|-0---------------------|--------------------0-0--|
A|-2---------------------|-------------------------|
E|-3---------------------|-------------------------|
  Delicate                             So why'd you


CHORUS:

  Fmaj7                        C
e|-------------|--------------|-------------|--------------|
B|-3-----1-----|--------------|-3-----1-----|--------------|
G|-------------|-2-----0------|-------------|-2-----0------|
D|-3-----2-----|-------2------|-3-----2-----|-------2------|
A|-------------|-3------------|-------------|-3------------|
E|-------------|--------------|-------------|--------------|
  Fill   my     sorrow with the words you    borrowed from the

  Fmaj7                        C
e|-------------|--------------|-------------|--------------|
B|-3-----1-----|--------------|-------------|-------1------|
G|-------------|-2-----0------|-------0-----|-2------------|
D|-3-----2-----|--------------|-2-----------|-0-----2------|
A|-------------|-2-----3------|-5-----3-----|--------------|
E|-------------|--------------|-------------|--------------|
   only         place you've   known             and why'd you

  Fmaj7                        C
e|-------------|--------------|-------------|--------------|
B|-3-----1-----|--------------|-3-----1-----|--------------|
G|-------------|-2-----0------|-------------|-2-----0------|
D|-3-----2-----|-------2------|-3-----2-----|-------2------|
A|-------------|-3------------|-------------|-3------------|
E|-------------|--------------|-------------|--------------|
  sing   hallelujah    if it means  nothing to ya     Why'd you

  Fmaj7                        G13
e|-------------|--------------|-------------|--------------|
B|-------------|--------------|-------------|--------------|
G|-0-----2-----|-------2------|-------------|-------0------|
D|-3-----5-----|-2------------|-3-----3-----|-3------------|
A|-------------|-2-----3------|-5-----7-----|--------------|
E|-------------|--------------|-------------|--------------|
  sing  with    me     at      all                    Why'd you


  Fmaj7                        C
e|-------------|--------------|-------------|--------------|
B|-3-----1-----|--------------|-3-----1-----|--------------|
G|-------------|-2-----0------|-------------|-2-----0------|
D|-3-----2-----|-------2------|-3-----2-----|-------2------|
A|-5-----3-----|-3------------|-5-----3-----|-3------------|
E|-------------|-5-----3------|-------------|-5-----3------|
  Fill   my     sorrow with the words you    borrowed from the

  Fmaj7                        C
e|-------------|--------------|-------------|--------------|
B|-3-----1-----|--------------|-------------|-------1------|
G|-------------|-2-----0------|-------0-----|-2------------|
D|-3-----2-----|--------------|-2-----------|-0-----2------|
A|-5-----3-----|-2-----3------|-5-----3-----|-0-----3------|
E|-------------|-5-----3------|-0-----3-----|--------------|
   only         place you've   known             and why'd you

  Fmaj7                        C
e|-------------|--------------|-------------|--------------|
B|-3-----1-----|--------------|-3-----1-----|--------------|
G|-------------|-2-----0------|-------------|-2-----0------|
D|-3-----2-----|-------2------|-3-----2-----|-------2------|
A|-5-----3-----|-3------------|-5-----3-----|-3------------|
E|-------------|-5-----3------|-------------|-5-----3------|
  sing   hallelujah    if it means  nothing to ya     Why'd you

  Fmaj7                        G13 (guitar tab now)
e|-------------|--------------|------0--0-0-|-0--0---------|
B|-------------|--------------|------1--1-1-|-0--0---------|
G|-------------|--------------|------0--0-0-|-0--0-0-0-0-0-|
D|-2-----------|--------------|-3-----------|------3-3-3-0-|
A|-------------|--------------|-0h2---------|--------------|
E|-3-----------|--------------|-3-----------|--------------|
  Sing   with   me     at      all
 

OUTRO:
e|----------(0)---(0)----|-------(0)---------------|
B|-----------1-----1-----|--------1----------------|
G|--2----0h2---0h2---0---|-0------0-----0-----0----| x3
D|-------3-------------0-|-0h2------0h2---0h2---0--|
A|-----------------------|-3-----------------------|
E|-1---------------------|-------------------------|

e|-----------------------|-------------------------|
B|---------1-1-1---1-1-1-|----1-1-1-1-1---1---1----|
G|---------0-0-0---0-0-0-|----0-0-0-0-0---0---0----|
D|-0----0--0-0-0h2-2-2-0-|-0--0-0-0-0-0-2-2-0-2----|
A|-0h2--2----------------|-2-----------------------|
E|-3---------------------|-3-----------------------|

e|----0---0--0-----------|-0-----------------------|--------------|
B|----1---1--1-----------|-1-------------1-1-1---1-|--------------|
G|----0---0--0-----------|-0-----------0-0-0-0-0-0-|--------------|
D|----3---3--3------3--3-|-3---3-3-3-3-3-3-3-3-3-3-|-0h2----------|
A|-----------------------|-------------------------|-3------------|
E|-1---------------------|-------------------------|--------------|

************************************

| /   slide up
| \   slide down
| h   hammer-on
| p   pull-off
| ~   vibrato
| +   harmonic
| x   Mute note
| b   Bend
| pb  Pre-bend
| br  Bend release
| pbr Pre-bend release
| brb Bend release bend

************************************
Tap to rate this tab
 
# A B C D E F G H I J K L M N O P Q R S T U V W X Y Z