Damien Rice - Rootless Tree tab

E|------------------------------------------|
B|------------------3-----------------------|
G|--------0-----------0---------2--------0--| 
D|------4--------0------------0--------4----|
A|----2--------3------------2--------5------|
E|--0---------------------3--------2--------|

E|------------------------------------------|
B|------------------3-----------------------|
G|--------0-----------0---------2--------0--| 
D|------4--------0------------0--------4----|
A|----2--------3------------2--------5------|
E|--0---------------------3--------2--------|

E|------------------------------------------|
B|------------------3-----------------------|
G|--------0-----------0---------2--------0--| 
D|------4--------0------------0--------4----|
A|----2--------3------------2--------5------|
E|--0---------------------3--------2--------|

E|------------------------------------------|
B|------------------3-----------------------|
G|--------0-----------0---------2--------0--| 
D|------4--------0------------0--------4----|
A|----2--------3------------2--------5------|
E|--0---------------------3--------2--------|

E|------------------------------------------|
B|------------------3-----------------------|
G|--------0-----------0---------2--------0--| 
D|------4--------0------------0--------4----|
A|----2--------3------------2--------5------|
E|--0---------------------3--------2--------|

E|------------------------------------------|
B|------------------3-----------------------|
G|--------0-----------0---------2--------0--| 
D|------4--------0------------0--------4----|
A|----2--------3------------2--------5------|
E|--0---------------------3--------2--------|

E|------------------------------------------|
B|------------------3-----------------------|
G|--------0-----------0---------2--------0--| 
D|------4--------0------------0--------4----|
A|----2--------3------------2--------5------|
E|--0---------------------3--------2--------|
Tap to rate this tab
 
# A B C D E F G H I J K L M N O P Q R S T U V W X Y Z