Song name
# A B C D E F G H I J K L M N O P Q R S T U V W X Y Z

Damien Rice - Animals Were Gone tab

                                         Artist - Damien Rice
                                        **********************
                                     Song - The Animals Were Gone 
                                    ******************************
                                              Album - 9 
                                             ***********
                                        Tabbed By - Ayreon77
                                       **********************

         ==================================================
          This is the 2nd guitar that's played in the song, 
                 This compliments Informal Skin.
          who did a great job tabbing out the main guitar
         ==================================================

     I Did A Cover Of this track And Just Found this Tab On My PC.
               I Thought Someone May Find It Useful.

==============
CAPO 7th Fret
==============

INTRO

VERSES 1
*********
1,Woke up and for the first time the animals were gone
2,The window's open now and the winter settles in
Chorus 
3,Woke up and for the first time the animals were gone
4,I know I've been a liar and I know I've been a fool

[-----------------------------|-----------------|------------------]
[---------1-----------1-------|-------1-0-------|-------1------1---]
[-------0---0-------0---0-----|-----2-----2-----|-----2------0-----]
[-----2-------2---2-------2---|---3---------3---|---3------2-------]
[---3-----------3-------------|-----------------|------------------]
[-----------------------------|-----------------|------------------]

1,It's left this house empty now, not sure if I belong
2,We'll call it Christmas when the adverts begin

3,Our clocks are ticking now so before our time is gone
4,I hope we didn't break yet, but I'm glad we broke the rules

[--------0------|------1-------3--|------------0--|---------------]
[------3---3----|------3-------5--|------0-1-3----|---------------]
[----2-------2--|----2-------4----|---------------|------0-----0--]
[--0------------|--0-------0------|----2----------|----2-----0----]
[---------------|-----------------|--3------------|--3-----2------]
[---------------|-----------------|---------------|---------------]


1,Yesterday you asked me to   write you a pleasant song
2,I love your depression and I love your double chin

3,We could get a house and some boxes on the lawn
4,My cave is deep now, yet your light is shining through

[---------------------------|--------0-------------------]
[--------1-----------1------|------3---3--------3---3----]
[------2---2-------2---2----|----2-------2----2---2---2--]
[----2-------2---2-------2--|--0------------0------------]
[--0-----------0------------|----------------------------]
[---------------------------|----------------------------]


1,I'll do my best now, but you've been gone for so long
2,I love 'most everything that you bring to this offering

3,We could make babies and accidental songs
4,I cover my eyes, still all I see is you

[------------------------------------------------]
[--------------------------------------------0---]
[---------1-----------1-------------------1------]
[-------2---2-------2---2-------------2----------]
[-----2-------2---2-------2-------2--------------]
[---0-----------0--------------0-----------------]



---------------------------------------------------------------------
CHORUS
*******
1,  Oh    I    know   that     I       left     you  
2,  Oh    I    know   that     I       love     you
[--------0-----------0------|---------------------------]
[------3---3-------3---3----|--------1-----------1------]
[----2-------2---2-------2--|------0---0-------0---0----]
[--0-----------0------------|----2-------2---2-------2--]
[---------------------------|--3-----------3------------]
[---------------------------|---------------------------]

1,in      places     of      despair
2,so      please     throw   dow   your   hair 
[--------0------------0-----|----------------------h-p-----]
[------3---3--------3---3---|---------1-----0-----0-1-0----]
[----2-------2---2--------2-|-------0---0-----0---------0--]
[--0-----------0------------|-----2-------2-----2----------]
[---------------------------|---3--------------------------]
[---------------------------|------------------------------]

3,At   night    I     trip   without     you
4,Cause    waking    up      without     you
[---------------------------|---------------------------]
[------1-0---------1-0------|------1-0---------1-0------]
[----2-----2-----2-----2----|----------0-----------0----]
[--3---------3-3---------3--|----2-------2---2-------2--]
[---------------------------|--3-----------3------------]
[---------------------------|---------------------------]

3,and    hope   I  don't  wake  up
4,is   like   drinking   from   an   empty   cup
[---------------------------|---------------------------]
[------1-0---------1-0------|------1-0---------1-0------]
[----2-----2-----2-----2----|----------0-----------0----]
[--3---------3-3---------3--|----2-------2---2-------2--]
[---------------------------|--3-----------3------------]
[---------------------------|---------------------------]



---------------------------------------------------------------------

Repeat this X7 times to end.
[---------------------------|---------------------------]
[------1-0---------1-0------|------1-0---------1-0------]
[----2-----2-----2-----2----|----------0-----------0----]
[--3---------3-3---------3--|----2-------2---2-------2--]
[---------------------------|--3-----------3------------]
[---------------------------|---------------------------]


Hope Someone Finds This Usefull, It Sure Does Fill The Song Out More.


Enjoy..............

Tap to rate this tab
# A B C D E F G H I J K L M N O P Q R S T U V W X Y Z