Song name
# A B C D E F G H I J K L M N O P Q R S T U V W X Y Z

Damien Rice - Canonball Live tab

This is how he plays the song live.

play with your thumb and when you swing the thumb, let it hit other strings and let
it ring. Counting is at the top if u get lost. Listen for strumming patterns on the
cd

Capo 6.

Intro/Verses
* 1   2    3   4      1    2       3    4
e|------------------------------------------|
B|------------------------------------------|
G|----0000-0---0---0------------------------|
D|----5555-4-2-0h2p0--0----0---0---0----0h4-|
A|2---2222---3-3------0h2--0h2-2h3-3/5--5---|
E|0-------------------3----3----------------|


e|------------------------------------------|
B|------------------------------------------|
G|----0000-0---0---0------------------------|
D|----5555-4-2-0h2p0--0----0---0---0----0h4-|
A|2---2222---3-3------0h2--0h2-2h3-3/5--5---|
E|0-------------------3----3----------------|

* 1   2    3   4      1    2       3    4
e|------------------------------------------|
B|----0000-0-0-0-0--------------------------|
G|----4444-5-4-2p0--------------------------|
D|----0000-0-0-0-0----0----0---0---0----0h4-|
A|2-------------------0h2--0h2-2h3-3/5--5---|
E|0-------------------3----3----------------|
   
* 1   2    3   4       1   2   3  4
e|0---0--------------------0------0---------|
B|0h1-1--------------------1------3---------|
G|0---0--------0---0---0---0------0---------|
D|2---2--------0---0---0h2-2------4---------|
A|3---3--------0h2-2h3-3---3------5---------|
E|------------------------------------------|
      ^strum               ^strum


Chorus
* 1       2       3       4       1       2       3       4   
e|-------------------------------------------------------------------|
B|3---3---3---3-3-3---3---3---3-3-3---3---3---3-3-3---3---3---3-3-3--|
G|4---4---4---4-4-4h5-5---5---4-4-0---0---0---0-0-0---0---0---0-0-0--|
D|5---5---5---5-5-0---0---0---0-0-0---0---0---0-0-0h4-4---4---4-4-4--|
A|5---5---5---5-5-5---5---5---5-5-5---5---5---5-5-5---5---5---5-5-5--|
E|3---3---3---3-3-3---3---3---3-3-5---5---5---5-5-5---5---5---5-5-5--|
                                                                      x3


* 1   2    3   4       1   2   3  4
e|0---0--------------------0------0---------|
B|0h1-1--------------------1------3---------|
G|0---0--------0---0---0---0------0---------|
D|2---2--------0---0---0h2-2------4---------|
A|3---3--------0h2-2h3-3---3------5---------|
E|------------------------------------------|
      ^strum               ^strum


Enjoy.

Tap to rate this tab
 
# A B C D E F G H I J K L M N O P Q R S T U V W X Y Z