Song name
# A B C D E F G H I J K L M N O P Q R S T U V W X Y Z

Damien Rice - Baby Sister tab

#---------------------------#
| Damien Rice - Baby Sister |
#---------------------------#

Tabbed by Jonny C
for more visit http://damienricetabs.awardspace.com


e--------------------------------------------|
B--------------------------------------------|
G--------0-0--------0-0------0-0-0-0---------| 
D------1-1-1------1-1-1------1-1-1-0---------| 
A----3----------3----------2-----------------| 
E--------------------------------------------|



e--------------------------------------------|
B--------------------------------------------|
G--------1-1--------1-1---------1-1-0h1h0----| 
D--------3-3--------3-3---------3-3-3--------| 
A------3----------3-----------2--------------| 
E----1----------1-----------3----------------|


Song just repeats
Tap to rate this tab
# A B C D E F G H I J K L M N O P Q R S T U V W X Y Z