Song name
# A B C D E F G H I J K L M N O P Q R S T U V W X Y Z

Damien Rice - Me My Yoke And I tab

#---------------------------------#
| Damien Rice - Me, My Yoke and I |
#---------------------------------#


Similar to Volcano
(Mostly play middle four strings)


e-----0-0----------0-0----------0-0----------0-0------0---|
B-----1-1----------1-1----------1-1----------1-1------3---|
G-----2-2----------2-2----------2-2----------2-2------4---|
D-----2-2/10~~-----2-2/10~~-----2-2/10~~-----2-2------5---|
A-----0-0----------0-0----------0-0----------0-0------5---|
E---------------(0)----------(0)----------(0)-----(0)-3---|

e------0-0-----------0-0-----------0-0-----------0-0------0------|
B------1-1-----------1-1-----------1-1-----------1-1------3------|
G------2-2-----------2-2-----------2-2-----------2-2------4------| back to
D------3-3-----------3-3-----------3-3-----------3-3------5------|  start
A------3-3/10~~------3-3/10~~------3-3/10~~------3-3------5------|
E--(0)-1-1-------(0)-1-1-------(0)-1-1-------(0)-1-1--(0)-3--(0)-|

tabbed by Jonny C
for more visit http://damienricetabs.awardspace.com
Tap to rate this tab
# A B C D E F G H I J K L M N O P Q R S T U V W X Y Z