Guitaretab - guitar tabs
Song name
# A B C D E F G H I J K L M N O P Q R S T U V W X Y Z

Damien Rice - Coconut Skins tab

This is the correct tablature! The timing can be heard when you listen to the song. It's
pretty simple strum pattern once you get it down, thumb-picking the bass notes and
with the fingers.  On the left hand(for rightties), the 1st and 2nd fingers do all the 
while the 3rd and 4th are stationary for the whole song.
Tuning is standard.

[ Tab from: http://www.guitaretab.com/d/damien-rice/80182.html ]
e----3---3---3-3-3----3-3-3----3-3-3-----3-3--3-3-3-3-----3-3-3-----|
B----3---3----3-3-3----3-3-3----3-3-3-----3-3--3-3-3-3-----3-3-3-----|
G----0---0----0-0-0----0-0-0----0-0-0-----0-0--0-0-0-0-----0-0-0-----|
D----0---0----2-2-2----2-2-2----2-2-2-----2-2--0--0-00-----0-0-0-----|
A-------------2-2-2----2-2-2----2-2-2-----2-2-----2-2-2--0--2-2-2--0--|
E-3---2-----0------2-0-----2-0-------2-0----2--3--------3---------3-|


e-3-3-3----|
B-3-3-3----|
G-0-0-0----|
D-0-0-0----|
A-2-2-2--0-|
E----------|
Related for Coconut Skins tab