Song name
# A B C D E F G H I J K L M N O P Q R S T U V W X Y Z

Damien Saez - Je Veut Quon Baise Sur Ma Tombe tab

frenh song again lol bye EC the new star...

Standard tunning

intro

----------------------------------------------------------------------|
----------------------------------------------------------------------|
----------------------------------------------------------------------|
---5--5--5--4--4h5---5--5--5--4--4h5---7--7--7--5--5h7--2--2--2--2--2-|
-3--3--3--3--3-----5--5--5--5--5-----5--5--5--5--5-----2--2--2--2--2--|
----------------------------------------------------------------------|

Chorus(play during whole song)

---------3------------------3---------------3-----------------0------|
-----1------1---1-------0-----0--0------2-----2---2-------0-----0--0-|
---0---0------0-------0---0----0------3---3-----3-------0---0-----0--|
------------------------------------0--------------------------------|
-3----------------------------------------------------2--------------|
-------------------3-------------------------------------------------|

Outro

C    G    D    Em


there have fun
Tap to rate this tab
# A B C D E F G H I J K L M N O P Q R S T U V W X Y Z