Song name
# A B C D E F G H I J K L M N O P Q R S T U V W X Y Z

Damiera - Ember Eason tab

Damiera - Ember Eason intro

from "M(us)ic"

Tuning: Half-Step Down (Eb Ab Db Gb Bb eb)

--------------------|
--------------------|
--------------------|
-12----14----10-----|
----10----10----10--|
--------------------|

(00:01)
-Here, there are two guitars-one is playing through the left speaker/earpiece and the 
through the right. On headphones, you can listen to each guitar separately.
Guitar 1 (Left)
-12---12---10---10--------------------------------------------|
---13---13---13---13--10---12---13---10-----------------------|
------------------------10---10---10---10---9---9---12---12---|
---------------------------------------------10--10---10---10-|
--------------------------------------------------------------|
--------------------------------------------------------------|

----------------------|
----------------------|
----------------------|
-10---12---14---10----|
---10---10---10---10--|
----------------------|

Guitar 2 (Right)
-15-----------------------------------------|
----13----12---13----13----13---13---13-----|
-------12----------12----14---12------------|
-----------------------------------15---14--|
--------------------------------------------|
--------------------------------------------|

Both guitars repeat twice, then guitar two plays this:
------------|
-12/13\12~--|
-12~--------|
------------|
------------|
------------|

The whole thing is repeated twice again.

Then, Guitar 1 plays something leading into the heavier part like this:
-----------------12h15\--|
-----------12h13---------|
---------12--------------|
-------12----------------|
-14h15-------------------|
-------------------------|

And at 00:47, there's a cool riff:
-15p12----------------------------------------------------|
------13p12~-15p12-----12/--------------------------------|
------------------12----------------------------------7*--|
---------------------9----9--10p9h10p9h10p9h10p9h10-------|
----------------------------------------------------------|
----------------------------------------------------------|

That's all I have for now... hopefully I'll be able to tab the whole song soon. (any 
with tabbing out the rest is greatly appreciated, I do hear a lot of sus2 chords in there 
that helps at all)

AGiantRobot
Tap to rate this tab
 
# A B C D E F G H I J K L M N O P Q R S T U V W X Y Z