Song name
# A B C D E F G H I J K L M N O P Q R S T U V W X Y Z

Damion Suomi - Ghost tab

http://www.damionsuomi.com/

Chords:
  Dm    Am   Gm   F    C
--1-----0----3----1----0--|
--3-----1----3----1----1--|
--2-----2----3----2----0--|
--0-----2----5----3----2--|
--x-----0----5----3----3--|
--x-----x----3----1----x--|

Intro A: (4x)
---------1-----1--------------------|
-----------3-----3----3-------------|
-------2-----2------2---------------|
---0--------------------------------|
---------------------------0---3----|
------------------------------------|

Intro B:
---------1-----1--------------------|
-----------3-----3----3-------------|
-------2-----2------2---------------|
---0-----------------------0----2---|
------------------------------------|
------------------------------------|


Note: Full strum all Intros A & B after the first Intro A and pull off on the chords, 
in the verses.

Verse 1:
Dm
   The world is moving at such a pace
Am
   How quickly someone can be erased
Gm                                     Intro A
   A fickle heart can never choose
Dm
   Another lover will soon replace
Am
   Another story to fill your space
Gm                                     Intro B
   I think Ill enjoy some time alone


Chorus:
F
Im not one for whiskey
          Dm                  (Use last part of Intro B to walk up to the F chord)
But Ill drink it down tonight
    F
And I am not a liar
          Dm
But Ill sing one here tonight

Intro A (4x)


Verse 2:
Dm
   You took everything but your ghost
Am
   And I know youre heading up the coast
Gm                                        Intro A
   I think its best if you did not call
Dm
   Are you sleeping better now Im gone
Am
   I know it hasnt been that long
Gm                                        Intro B
   But do you let anybody hold your hand

Chorus

Bridge 1:
        F
I dont love you
       Dm             (Intro B walkup)
I dont love you anymore
       F
I dont love you
            Dm
And I will sing it til its true


Interlude:
Gm Dm Am Dm
F C Gm Am
Dm Am Gm Dm (Intro B walkup)

Chorus

Bridge 2:
        F
I dont love you
       Dm               (Intro B walkup)
I dont love you anymore

(3x)

        F
I dont love you
            Dm
And I will sing it til its true


Intro A, Yeah til its true (4x)

End on Dm
Tap to rate this tab
 
# A B C D E F G H I J K L M N O P Q R S T U V W X Y Z